Guitar Chords » P »Pescado Rabioso » Cementerio Club (Tab)

Cementerio Club
Pescado Rabioso

Lyrics, Chords & Tabs for Guitar, Bass & Ukulele

  • Gm7             Gm7/6
        Justo que pensaba
        B7/9           G7  F#m7  G7/6  F#m7  G7/6  F#m7
    En vos nena, caí muerto
    Gm7                     Gm7/6
        ¿Quién le dio al pequeño dios
        B7/9             G7  F#m7  G7/6  F#m7  G7/6  Eb7/9 B/Eb  E7/9 B7/9
    el cetro gris del abismo?
    
    C#7/9                B7/9          F#m7
      Sólo se que no soy yo, a quién duermes
    C#7/9                B7/9          F#m7
      sólo se que no soy yo, a quién duermes.
    
    Inter (Solo): A B F#m7
    
    Gm7         Gm7/6          B7/9                          G7
      Oye dime nena, ¿dónde ves ahora algo en mí que no detestes?
    F#m7  G7/6  F#m7  G7/6  Eb7/9 B/Eb  E7/9  B7/9
    
    
  • Gm7           C7      B(7/9) B(7/#9)
    Justo que pensaba en vos,
                G7   F#m  G7  F#m  G7  F#m
    nena, caí muerto
    Gm7                     C7               B(7/9) B(7/#9)
    ¿qué le dio al pequeño Dios del centro gris
          G7   F#m  G7  F#m  G7  Bb7  B7  E(7/9)  B5
    del abismo?
     C#(7/9)/G#     B(7/9)/F#       F#m
    Sólo se que no soy yo a quien duerme...
     C#(7/9)/G#     B(7/9)/F#       F#m
    Sólo se que no soy yo a quien duerme...
    
    Base: [A  B  F#m] x4
    e|----9----------9--------------------||
    B|------10-8/9-----10-8/9-------------||
    G|*-9----------9----------11/10/9-11-*|| x4
    D|*----------------------------------*||
    A|------------------------------------||
    E|------------------------------------||
    
  • ---www.spinettachords.com.ar---
    
    Estrofa 1:
    
    Gm7         Gm6
    Justo que pensaba,
    B7/9        (fill 1)
    en vos nena
    
    Fill 1:
     B7/9(#9) B7/9
    e|------------|
    b|-3-2--0-2-2-|
    g|-2-2--2-2-2-|
    d|-1-1--1-1-1-|
    a|-2-2--2-2-2-|
    E|------------|
    
      G7       F#m7 (fill 2)
    caí muerto
    
  •  RE -4/5    RE -/3/4/5    FA#m 7
       Justo que pensaba, en vos nena
                    SOL7 Add2
                caí muerto
      RE -4/5    RE -/3/4/5
       Quién le dio al pequeño dios
        FA#m 7              SOL7 Add2
        El cetro gris, del abismo.
    
       (principio)            arreglo 1
    e|----4---2-----|------------------5-----------------
    B|---2-----2----|------------6s5s3---2---------------
    G|--2---2---2---|-----4-7s10-------------------------
    D|-4---4-----4--|-5-7--------------------------------
    A|--------------|------------------------------------
    E|--------------|------------------------------------
    
    La segunda vez cambia el principio de el arreglo 1 por:
    
    e|-4s2-2-4-5----|------------------5-----------------
    
  • “Justo que pensaba, en vos nena…                           cai
    G|---------------------------------------------4------------------2-------
    D|---------------5----------------5----------4----4------------4----4--5--
    A|--------5-----------------5--------5|2---------------5|2----------------
    E|-3-----------------3----------------------------------------------------
       -                 -                 -                 -
    muerto”
    G|------------------------------------------------------------------------
    D|----------------5--4---4------------4-----------------------------------
    A|----------2--5-------------------4--------------------------------------
    E|-3-------------------------2--5------3-----3--3-----3--2-----2--2-----2-
       -                 -                 -                 -
    G|-----------------------------------
    D|-----------------------------------
    A|---------------------------------5-
    E|-3-----3--3-----3--2----2--2-------
       -                 -                 -                
  • +
    ¡Colabora con nosotros!
    Envíanos tu versión de esta canción
  • Tutorial
    HD
    Explicado - Como tocar "Cementerio Club" de Spinetta/Pescado Rabioso en el bajo tutorial#87
    18:08

Cementerio Club Lyrics
Justo que pensaba en vos,
nena, caí muerto
¿qué le dio al pequeño Dios del centro gris
del abismo?
Sólo se que no soy yo a quien duerme...
Sólo se que no soy yo a quien duerme...
Oye, dime, nena ¿a dónde ves ahora
algo en mi que no detestes?
qué sólo y triste voy a estar
en este cementerio
que calor hará sin ti en verano...
||o||| ||o||| |||||| |||||| ||||||
|o|oo| |o|o|| ||o||| ||o||| ||o|||
|||||| ||||o| |o|oo| o||oo| o||oo|
|||||| |||||| |||||| |||||| ||||||




[Cementerio Club acordes][Cementerio Club cifra]
© LaCuerda.net · legal notice · privacy · es · en · pt · contact us
DINAMICO