Guitar Chords » P »Perota Chingo » Anhelando Iruya (Tab)

Anhelando Iruya
Perota Chingo

Lyrics, Chords & Tabs for Guitar, Bass & Ukulele

  •           Bm                         A                   G
    e||-------7-----9-----7-----|-------5-----7-----5-----|-------3-----|
    B||-----7---7-----7-----7---|-----5---5-----5-----5---|-----3---3---|
    G||---7-------7-----7-----7-|---6-------6-----6-----6-|---4-------4-|
    D||-9-----------------------|-7-----------------------|-5-----------|
    A||-------------------------|-------------------------|-------------|
    E||-------------------------|-------------------------|-------------|
          A
    e|-------5-----|-------7-----9-----7-----||
    B|-----5---5---|-----7---7-----7-----7---||
    G|---6-------6-|---7-------7-----7-----7-||
    D|-7-----------|-9-----------------------||
    A|-------------|-------------------------||
    E|-------------|-------------------------||
    
    
       Bm                A
     No Espero que me recuerdes
          G           A            Bm
     soy solo uno de los muchos que se van
    
  • Intro: Bm - A - G - A - Bm - A - Em - F# - Bm
    
    
    1)
    Bm                A
    Espero que me recuerdes
               G          A            Bm
    soy solo uno de los muchos que se van
     Bm               A                     Em
     un viajero agradecido del cobijo del abrigo
              F#           Bm
     que le diste aquella vez
     Bm                 A                      G
     casi sin pedirme nada , me mostraste tu mirada
          A           Bm
     de un mundo diferente
       Bm              A
     es tu paso tan sereno
                       Em
     es tu paz y la simpleza
    
  • e: ------7-----9----7------      e: ------5---7---5-------
    b: -----7--7----7----7-----      b: -----5--5---5---5-----
    g: ----7----7---- 7----7---      g: ----6----6---6----6---
    d: ---9--------------------      d: ---7------------------
    a: ------------------------      a: ----------------------
    e: ------------------------      e: ----------------------
    
    e: ------3------    e: ------5-----     e: ------7-----9----7------
    b: -----3--3----    b: -----5-5----     b: -----7--7----7----7-----
    g: ----4----4---    g: ----6---6---     g: ----7----7---- 7----7---
    d: ---5---------    d: ---7--------     d: ---9--------------------
    a: -------------    a: ------------     a: ------------------------
    e: -------------    e: ------------     e: ------------------------
    
    
    GUITARRA 2:
    e: --0-2--0-2-3-2---0-0-0-2-----
    b: -3----3-------2-----3---3-0--
    g: -----------------------------
    d: -----------------------------
    
  • +
    ¡Colabora con nosotros!
    Envíanos tu versión de esta canción

Anhelando Iruya Lyrics
1)
Espero que me recuerdes
soy solo uno de los muchos que se van
un viajero agradecido del cobijo del abrigo
que le diste aquella vez
casi sin pedirme nada , me mostraste tu mirada
de un mundo diferente
es tu paso tan sereno
es tu paz y la simpleza
con que enseñas a quererte
2)
Voy cerrando los ojos
anhelando verte otra vez
Voy cerrando los ojos
y me parece verte otra vez
1)
Escondida en la quebrada
tu capilla te delata
y un pueblito de repente
agradezco tus montañas
tus sonrisas tus mañanas
y el Río grande
1)
Vos pintaste mis pupilas
con los colores de la vida
y la humildad de tu gente
y sólo cuando el río
deja pasar al que camina se llega a vos
2)
Voy cerrado los ojos anhelando verte otra vez
Voy cerrando los ojos y me parece verte otra vez
voy cerrando los ojos anhelando verte otra vez
voy cerrando los ojos y me parece verte otra vez..
otra vez..
otra vez..




[Anhelando Iruya acordes][Anhelando Iruya cifra]
© LaCuerda.net · legal notice · privacy · es · en · pt · contact us
DINAMICO