Guitar Chords » P »Pedro Suarez Vertiz » Cuéntame (Tab)

Cuéntame
Pedro Suarez Vertiz

Lyrics, Chords & Tabs for Guitar, Bass & Ukulele

  • C  - 8 10 10 9 8 8 -
    Am - 5 7 7 5 5 5 -
    D  - x 5 7 7 7 5 -
    Bm - x 2 4 4 3 2 -
    G  - 3 2 0 0 3 3 -
    Em - 0 2 2 0 0 0 -
    F  - 1 3 3 2 1 1 -
    C  - x 3 2 0 1 0 -
    D# - x x x 3 4 3  -
    
    
    
    Intro: C Am D Bm
           C Am D Bm
    
     C                 Am
    Uohhhhh, uohhhhh, uohhhhh.
     D                 Bm
    Uohhhhh, uohhhhh, uohhhhh, uohhhhh, uohhhhh, uohhhhh. (x2)
    
    
  • INTRO: G  Em A F#m (2 VECES)
    
    
    1)
    G     Em         A     F#m
    OH OH OH OH OH OH OH..
    (2 VECES)
    
    
    2)
                D
    NO ERA INCREIBLE 
          F#m          Bm
    SU CONDUCTA ERA TERRIBE 
                 Am                    Em
    HOY LA ENCONTRARON CON UN  PAR DE LOCOS 
         Gm                  Bm
    ASALTANDO PERSONAS DE CIUDAD EN CIUDAD 
    
    2)
    
  • INTRO:
    G---------------------------------------------------------------
    D---------------------------------------------------------------
    A-3-3-3-30-00-05-5-5-5-52-22-2---------------------------------- x2
    E---------------------------------------------------------------
    
    CANTO:
    G---------------------------------------------------------------
    D---------------------------------------------------------------
    A--------2-2-2-2--------------3-3-3-36-6-6-67-7-7-77-7-7-7----- x2
    E-3-3-3-3-------0-0-0-01-1-1-1---------------------------------
    
    CORO:
    G---------------------------------------------------------------
    D---------------------------------------------------------------
    A-3-32-20-0-0-05-53-52-2-2-2------------------------------------ x2
    E---------------------------------------------------------------
    
    (REPITE CANTO)
    (REPITE CORO x2)
    (REPITE CANTO)
    
    INTERLUDIO:
    G-----------------
    D-----------------
    A-6-6-6-6--------- x4
    E--------0-0-0-0--
    
    G-------------------------------
    D----------------
  • +
    ¡Colabora con nosotros!
    Envíanos tu versión de esta canción
  • Tutorial
    HD
    Cuéntame - Pedro Suárez Vértiz (tutorial)
    4:01
  • Tutorial
    HD
    Cuéntame (solo versión en vivo)
    - Pedro Suárez Vértiz (tutorial)
    1:16

Cuéntame Lyrics
1)
OH OH OH OH OH OH OH..
(2 VECES)
2)
NO ERA INCREIBLE
SU CONDUCTA ERA TERRIBE
HOY LA ENCONTRARON CON UN PAR DE LOCOS
ASALTANDO PERSONAS DE CIUDAD EN CIUDAD
2)
EN SU MIRADA EL AMOR YA NO MORABA
PERO ERAN TAN BELLOS SUS OJOS
QUE TODOS SE OLVIDABAN DE SU REALIDAD
3)
CUENTAME
CUENTAME SOBRE TU VIDA
Y TRATARE
DE QUERERTE TODAVIA
2)
AY DIOS, AY DIOS, AY DIOS
YO ERA UN NI~O QUE SE VOLVIA LOCO
CUANDO LA COMTEMPLABA SIEMPRE MODELAR
2)
ELLA LLORABA Y NADIE LA CONSOLABA
MI CORAZON SE QUEBRANTO DE A POCOS
LA MUJER MAS HERMOSA YA NO VOLVERA HUM HUM
3)
CUENTAME
CUENTAME SOBRE TU VIDA
Y TRATARE
DE QUERERTE TODAVIA
1)
OH OH OH OH OH OH OH..
(2 VECES)
2) D Fm# Bm Am Em Gm Bm
2)
NO DESESPERES SI ALGO QUEDA EN MI TU PUEDES
SALIR DE ESTA ASI ME CUESTE TODO
PERO A MI SI ME CUENTAS TODA LA VERDAD
4)
CUENTAME MI AMOR (4 VECES)
2)
NO ME LLORES NO ME ABRACES NO HAGAS NADA
YA NO SE SI TU LO VALGAS TODO
PORQUE FUISTES ALGO QUE NO SE PUEDE OLVIDAR
2)
QUE EL MEJOR REMEDIO DE TODOS
ES PENSAR EN AQUELLOS QUE HICISTES LLORAR
1)
OH OH OH OH OH OH OH..
(VARIAS VECES)
(VAMOS CUENTAME AMOR, CUENTAME SOBRE TU VIDA,
Y TRATARE, DE QUERERTE TODAVIA, NO ME LLORES NO ME ABRACES,
NO ME ABRACES NO HAGAS NADA, QUE YO SE NADA,
CUENTAME SOBRE TU VIDA, CUENTAME SOBRE TU VIDA,
YO YA TE AMABA, YO DE NI~O TE MIRABA, DE NI~O TE
CONTEMPLABA, Y ESTUVE LOCO POR TI, NO QUEDA NADA, NO ME LLORES, NO ME
ABRACES, CUENTAME SOBRE TU VIDA, CUENTAME SOBRE TU VIDA, POR QUE TE DI NO
QUEDA NADA......)




[Cuéntame acordes][Cuéntame cifra]
© LaCuerda.net · legal notice · privacy · es · en · pt · contact us
DINAMICO