Guitar Chords » P »Pedro Fernandez » Gema (Tab)

Gema
Pedro Fernandez

Lyrics, Chords & Tabs for Guitar, Bass & Ukulele

  •  Em
    tu 
                      G
    como piedra preciosa
                   C
    como divina joya
                   B7
    valiosa de verdad
    C                      B7
    si mis ojos no me mienten
    C                      B7
    si mis ojos no me engañan
    Am                    B7
    tu belleza es sin igual
    E         B7           E
    tuve una vez la ilusion
    B7             E 
    de tener un amor
                      B7
    que me hiciera valer
    
  • Em D C Am G F#7 B7 Em
    
    
    
    Em                 D                  C                  B7
    Tu… como piedra preciosa como divina joya valiosa de verdad
    
    C                      B7   C                      B7
    si mis ojos no me mienten   si mis ojos no me engañan
    
    
    Am                    B7 E         B7           E      B7         E
    tu belleza es sin igual  tuve una vez la ilusión   de tener un amor
    
    
                     B7   F#m       B7      F#m   B7       F#m
    que me hiciera valer  luego que te vi mujer yo te pude querer
    
    
                      E            B7        E     B7         E E7
    
  •         Em            D             C           B7
    e|-0-0-2-3-2-0-|----0-2-0-----|-----0-----|-------------|
    B|-------------|3-3-------2---|1-1-2--2-1-|--0----------|
    G|-------------|--------------|-----------|-------------|
    D|-------------|--------------|-----------|-------------|
    A|-------------|--------------|-----------|-------------|
    E|-------------|--------------|-----------|-------------|
    
            Am            G             F#        B7           Em
    
    e|-5-5-7-8-7-5-|----5-7-5-----|-----7---5-|-----------|-----------|
    B|-------------|8-8-------8---|---7-------|---8-7-----|--5--------|
    G|-------------|--------------|-----------|-----------|-----------|
    D|-------------|--------------|-----------|-----------|-----------|
    A|-------------|--------------|-----------|-----------|-----------|
    E|-------------|--------------|-----------|-----------|-----------|
    
    Em
    tu
                      D
    
  • +
    ¡Colabora con nosotros!
    Envíanos tu versión de esta canción

Gema Lyrics
tu
como piedra preciosa
como divina joya
valiosa de verdad
si mis ojos no me mienten
si mis ojos no me engañan
tu belleza es sin igual
tuve una vez la ilusion
de tener un amor
que me hiciera valer
luego que te vi mujer
yo te pude querer
con toditita mi alma
eres la gema que dios
convirtiera en mujer
para bien de mi vida
por eso quiero cantar
y gritar que te quiero
mujer consentida
por eso elevo mi voz
bendiciendo tu nombre
y pidiendote amor




[Gema acordes][Gema cifra]
© LaCuerda.net · legal notice · privacy · es · en · pt · contact us
DINAMICO