Guitar Chords » P »Pedro Fernandez » Dime mi amor (Tab)

Dime mi amor
Pedro Fernandez

Lyrics, Chords & Tabs for Guitar, Bass & Ukulele

  •           E                     F#m
    1|-4-5-5-4-4h5p4-------|---------------------|f
    2|---------------7-7-5-|---------------------|C
    3|---------------------|-5-------5/7-------5-|G#
    4|---------------------|---------------------|D#
    5|---------------------|---------------------|A#
    6|---------------------|---------------------|F
    
              E            X    -    E
    1|-4-5-5-4-4h5p4-------|-----------4---------|f
    2|---------------7-7--5/7--------------------|C
    3|---------------------|---------4-----------|G#
    4|---------------------|---------------------|D#
    5|---------------------|---------------------|A#
    6|---------------------|---------------------|F
    
    ...VIOLINES
    
    A-F#m  G#m-E  A-F#m  B7  C7
    
    
  • E F#m E B E A F#m G#m E A F#m B7 C7
    
    E                    B                     E
    Perdon, si alguna veces no t digo lo que siento
                 B                         A
    si algunas veces vuelo lejos como el viento
                  F#m                B7
    si algunas veces lastime tu corazon
    
    
    E                 B                 E
    perdon, por esta forma extraña de quererte
              B                     A
    por este miedo tan cobarde de perderte
                 F#m                      B7
    por ser tan necio cuando tienes la razon
    
    "pre-coro"
    
    C                             G
    
  • |----------------------------------------------------|
    |-10--11----11-10-10/11/10---------------------------|
    |--------------------------12--12----10/6--6/8--6----|
    |----------------------------------------------------|
    |----------------------------------------------------|
    |----------------------------------------------------|
    
    
    |-------------------------------------------------------|
    |-10--11----11-10--10/11/10-----------------------10----|
    |---------------------------12-12----10/12--------------|
    |----------------------------------------------10-------|
    |-------------------------------------------------------|
    |-------------------------------------------------------|
    
    
    |----10-8-8----------------8-----------------------------------------------|
    |-----------11-11-8--10-11--------------11-10-10-8-8--------------8----8s9-|
    |-10----------------------------10----7--------------10-10-7-9-10----------|
    |--------------------------------------------------------------------------|
    
  • +
    ¡Colabora con nosotros!
    Envíanos tu versión de esta canción
  • Tutorial
    HD
    Como tocar DIME MI AMOR en guitarra sin capo
    6:08

Dime mi amor Lyrics
...VIOLINES
Perdon, si alguna veces no t digo lo que siento
si algunas veces vuelo lejos como el viento
si algunas veces lastime tu corazon
perdon, por esta forma extraña de quererte
por este miedo tan cobarde de perderte
por ser tan necio cuando tienes la razon
"pre-coro"
Perdon por esas noches de desvelo
que te he dejado sola y sin mi amor
por todos mi errores y defectos
perdoname por ser tal como soy
"coro"
Dime mi amor q puedo hacer
y demostrarte q eres tu toda mi vida
dime mi amor q puedo hacer
y acariciarte el corazon todos los dias
dime mi amor si todavia
tengo esperanzas d q sigas siendo mia
Amor, dejame amarte como tu lo estas queriendo
te lo suplico con el corazon abierto
q se desangra de tristeza y de dolor
"pre-coro"
Perdon por esas noches de desvelo
que te he dejado sola y sin mi amor
por todos mi errores y defectos
perdoname por ser tal como soy
"coro"
Dime mi amor q puedo hacer
y demostrarte q eres tu toda mi vida
dime mi amor q puedo hacer
y acariciarte el corazon todos los dias
dime mi amor si todavia
tengo esperanzas d q sigas siendo mia ... siendo mia.
Eso es todo yo les recomiendo que toquen B7 y G con cegilla
suena mucho mejor asi o mas bien esa es la forma correcta de tocar
esta canción.
SI QUIEREN TOCAR LA CANCION SIN CAPO SOLO BAJA 1 TONO LOS ACORDES
GRACIAS A LA CUERDA YA TIENES ESTA OPCION ALLA ARRIBA Y LOS ACORDES
CAMBIARAN.




[Dime mi amor acordes][Dime mi amor cifra]
© LaCuerda.net · legal notice · privacy · es · en · pt · contact us
DINAMICO