Guitar Chords » P »Pedro Aznar » A primera vista (Tab)

A primera vista
Pedro Aznar

Lyrics, Chords & Tabs for Guitar, Bass & Ukulele

  • Intro:[C - G#º - Am - F#º - F - F#º - G (x1)]
    
    C                G#º       Am                  F#º
     Cuando no tenía nada deseé, cuando todo era ausencia esperé,
    F                       F#º                     G
     cuando tuve frío temblé, cuando tuve coraje llamé.
    C             G#º          Am                 F#º
     Cuando llegó carta la abrí, cuando escuché a Prince bailé,
    F                            F#º                          G
     cuando el ojo brilló entendí, cuando me crecieron alas volé.
    C             G#º        Am             F#º
     Cuando me llamó allá fui, cuando me di cuenta estaba ahí,
    F                           F#º            G#º
     cuando te encontré me perdí, en cuanto te vi me enamoré...
    
    
    Inter coral: [Am - Am/G# - Am/G - F#º - F - F#º - G
                  C - G#º - Am - F#º - F - F#º - G]
    
    Inter: [Solo cuerdas: C - G#º - Am - F#º - F - F#º - G (x1)]
    
  • C                G#dim
    Cuando no tenía nada deseé
    Am                     F#dim
    Cuando todo   F#dim
    Cuando todoo todo era ausencia esperé
    F
    cuando tuve frío temblé
    F#dim                     G
    cuando tuve el coraje llamé
    
    
    C              G#dim
    Cuando llegó carta la abrí
    Am                 F#dim
    cuando escuche a Prince Bailé
    F
    Cuando el ojo brilló entendí
    F#dim                       G
    Cuando me crecieron alas volé
    
    
  • DOM*             SOL#d      LAm                FA#d
     Cuando no tenía nada deseé, cuando todo era ausencia esperé,
    FA                        FA#d                  SOL 
     cuando tuve frío temblé, cuando tuve coraje llamé.
    DOM*          SOL#d         LAm               FA#d
     Cuando llegó carta la abrí, cuando escuché a Prince bailé,
    FA                            FA#d                        SOL 
     cuando el ojo brilló entendí, cuando me crecieron alas volé.
    DOM*          SOL#d       LAm           FA#d
     Cuando me llamó allá fui, cuando me di cuenta estaba ahí,
    FA                            FA#d           SOL#d       LAm
     cuando te encontré me perdí, y en cuanto te vi me enamoré...
    
    
    Coro:
    LAm/SOLM#-LAm/SOL  FA#d   FA
    Amara     záia     zoê,   záia, záia
    FA#d             SOL 
    A hin hingá do hanhan..
    DOM*   SOL#d        LAm  FA#d FA
    
  • LA PRIMERA SECUENCIA [C - G#º - Am - F#º - F - F#º - G] se
    repite durante toda la canción (es la INTRO y la base). A
    lo sumo cambian algunos detalles del arpegio, pero eso a gusto.
    
    En el único momento que cambia es en el INTER CORAL, es decir,
    cuando termina la estrofa (mientras canta "Amarazáia zoê, záia,
    záia A hin hingá do hanhan.. Ohhh Amarazáia zoê, záia, záia A
    hin hingá do hanhan..")
    
    
    
    1º SECUENCIA
    
          (C)         (G#º)      (Am)            (F#º)
    E|-------0-----------------------------------------------
    B|---------1--------3-------------1-------------1--------
    G|----0----------------4------------2---------2----2---2-
    D|----------------3------3-----2------------1--------1---
    A|-3------------------------0----------------------------
    E|----------3--4----------------------3--2---------------
    
  • |---------------------------------------------------------------------|
    |-----4---------2---------0-----------0-------------0---------------0-|
    |-------4---------3---------3-------1---1-------1-----1---1-----1-----|
    |---4---------2-----2---1---------0-------0-------0-----0-----0---0---|
    |-2-------------------------------------------2-----------------------|
    |---------2-3---------4-------2-1-----------0-------0-------1-------1-|
    
    
    |-----------------------------|
    |-----0---------0-------------|
    |-1-----3---3-----3-----------|
    |---0---------4-----4---------|
    |---------4------------1-2----|
    |-------2-------2-------------|
    
        En………… vi me enamore...
    |---------------------------------------------------------------------------|
    |-------0---------2---------0-----------0-------------0-------------0-------|
    |-----1---1-----3---3-----3---3-------3-------3-----1---1-------1-----1---1-|
    |---0---------2---------1-------1---1-------1-----0-------0-------0-----0---|
    
  • +
    ¡Colabora con nosotros!
    Envíanos tu versión de esta canción

A primera vista Lyrics
Cuando no tenía nada deseé
Cuando todoo todo era ausencia esperé
cuando tuve frío temblé
cuando tuve el coraje llamé
Cuando llegó carta la abrí
cuando escuche a Prince Bailé
Cuando el ojo brilló entendí
Cuando me crecieron alas volé
Cuando me llamó allá fui
Cuando me di cuenta estaba allí
Cuando te encontré me perdí
En cuanto te vi me enamoré




[A primera vista acordes][A primera vista cifra]
© LaCuerda.net · legal notice · privacy · es · en · pt · contact us
DINAMICO