Guitar Chords » P »Paulo Londra » Homerun (Tab)

Homerun
Paulo Londra

Lyrics, Chords & Tabs for Guitar, Bass & Ukulele

  • REm: A, P, A, P, A, P, A, P
    FA: A, P, A, P, A, P, A, P
    DO: A, P, A, P, A, P, A, P
    REm: A, P, A, P, A, P, A, P
    
    
    ARPEGIADA
    REm
    Ahora sí que estoy consciente, -sciente
    FA
    Que tengo familia, mis amigos, mis motivos
    DO
    Que son más que suficiente, -ciente
    REm
    Para hacer lo que más quiero porque soy valiente
    
    RASGUEADA
    REm
    Eso ya lo sé, ya lo sé; ma', lo sé
    FA
    
  • Dm=⬇️x ⬇️x
    Dsus4=⬇️x
    Dm=⬇️x
    ARPEGIO:
             Bbmaj7        F
             1|-1---1----  1|-1---1----
             2|---3---3--  2|---1---1--
             3|--2-2-2-2-  3|--2-2-2-2-
             4|----------  4|----------
             5|-1---1----  5|----------
             6|----------  6|-1---1----
    
             C             Dm (Al final hay un pequeño arreglo)
             1|-0---0----  1|-1----0-1-3-
             2|---1---1--  2|---3-3------
             3|--0-0-0-0-  3|--2-2-------
             4|----------  4|-0----------
             5|-3---3----  5|------------
             6|----------  6|------------
    INTRO:(Arpegio)
    
  • e|--1-----------1-----------1-----------1------------------------|
    B|--------3-----------3-----------1-----------1------------------|
    G|-----2-----2-----2-----2-----2-----2-----2-----2---------------|
    D|--0-----------0------------------------------------------------|
    A|---------------------------------------------------------------|
    E|--------------------------1-----------1------------------------|
    
    e|--0-----------0-----------1--------------0--1--3---------------|
    B|--------1-----------1-----------3-----3------------------------|
    G|-----0-----0-----0-----0-----2-----2---------------------------|
    D|--------------------------0------------------------------------|
    A|--3-----------3------------------------------------------------|
    E|---------------------------------------------------------------|
    
    e|--1-----------1-----------1-----------1------------------------|
    B|--------3-----------3-----------1-----------1------------------|
    G|-----2-----2-----2-----2-----2-----2-----2-----2---------------|
    D|--0-----------0------------------------------------------------|
    A|---------------------------------------------------------------|
    E|--------------------------1-----------1------------------------|
    
  • +
    ¡Colabora con nosotros!
    Envíanos tu versión de esta canción

Homerun Lyrics
ARPEGIADA
Ahora sí que estoy consciente, -sciente
Que tengo familia, mis amigos, mis motivos
Que son más que suficiente, -ciente
Para hacer lo que más quiero porque soy valiente
RASGUEADA
Eso ya lo sé, ya lo sé; ma', lo sé
Que cuando cayere, ello' ahí estarán
Dispuesto' para qué, para levantarme
Cuando esta' pierna' no me funcionen más
RASGUEADA
Entonces salgo pal' frente, me hice más fuerte
No quiero ser un peso para toda mi gente
Pateé de repente los problemas de siempre
Le di con toda la fuerza de este ser viviente
ARPEGIADA
Decidido mi homerun, ey
Decidido mi homerun
Decidido mi homerun, yo'
Decidido mi homerun
RASGUEADA
Y lo voy a hacer por mi mamá, por mi papá
Por mi hermana, por mis panas, por mis ganas
Por las buenas, por las malas, por la pena
Por más ganas, por miradas, ey
RASGUEADA
Por la risa, por los llantos
Por mentiras, por encantos
Por heridas, por ayer, por el hoy
Porque sé que ahora voy, que ahora voy
ARPEGIADA
Decidido mi homerun, ey
Decidido mi homerun
Decidido mi homerun, yo'
Decidido mi homerun




[Homerun acordes][Homerun cifra]
© LaCuerda.net · legal notice · privacy · es · en · pt · contact us
DINAMICO