Guitar Chords » P »Las Pastillas del Abuelo » Esperándome (Tab)

Esperándome
Las Pastillas del Abuelo

Lyrics, Chords & Tabs for Guitar, Bass & Ukulele

  • INTRO: SOL DO-RE *
    
    
    [INTRO X4]
    
    SOL            DO    RE    SOL
    Mirando el río manso me quede
    SOL             DO   RE     SOL*
    sentado en la ribera solo, solo
    
    [INTRO X1]*
    
    SOL            DO   RE     SOL
    en la noche buscándote mi amor
    SOL                DO     RE       SOL*
    la luna hizo un agujero y me quede solo
    
    [INTRO X2]*
    
    DO            RE   SOL
    
  • e--------3--------|--------0--|--2(3)--2--------|
    B-----------3-----|-----------|-----------3-----|
    G-----0--------0--|-----------|--------------2--|
    R-----------------|-----2-----|-----------------|
    A-----------------|--3--------|-----------------|
    E--3--------------|-----------|-----------------|
            SOL             DO          Re/Resus         X2
    
    e---------3--------|--------0--|--2(3)--2--------|
    B-------3-----3----|-----------|-----------3-----|
    G-----0---------0--|-----------|--------------2--|
    R------------------|-----2-----|-----------------|
    A------------------|--3--------|-----------------|
    E--3---------------|-----------|-----------------|
    
            SOL             DO          Re/Resus
    
    G               C     D
    Mirando el rio manso me quede
    G                C    D
    
  • e---------3-------|--------0-----|--2(3)--2--------|
    B-----------3---3-|-----------1--|-----------3-----|
    G-----0-------0---|--------------|--------------2--|
    R-----------------|-----2--------|-----------------|
    A-----------------|--3-----------|-----------------|
    E--3----3---------|--------------|-----------------|
    
            G              C             RE/REsus        X2
    
    e---------3--------|--------0----|--2(3)--2--------|
    B-------3-----3----|-----------1-|-----------3-----|
    G-----0---------0--|-------------|--------------2--|
    R------------------|-----2-------|-----------------|
    A------------------|--3----------|-----------------|
    E--3---------------|-------------|-----------------|
    
            G              C             RE/REsus
    
    G               C     D     G
    Mirando el rio manso me quede
    
  • +
    ¡Colabora con nosotros!
    Envíanos tu versión de esta canción

Esperándome Lyrics
Mirando el río manso me quede
sentado en la ribera solo, solo
en la noche buscándote mi amor
la luna hizo un agujero y me quede solo
Iluminando el agua
y así pude verte mecer
en el baile entre las olas mi amor
estabas igual que ayer
quizás esperándome
quizás ayudándome
Sentado en la ribera me quede
sentado en la ribera solo, solo
en la noche buscándote mi amor
la luna hizo un agujero y me quede solo
Iluminando el agua
y asi pude verte mecer
en el baile entre las olas mi amor
estabas igual que ayer
quizás esperándome
quizás ayudándome
quizás contemplándome
quizás esperándome.
____________________________________
¡ESPERO QUE LES SIRVA! ¡SALUDOS! CUALQUIER COSA elnahue@outlook.com




[Esperándome acordes][Esperándome cifra]
© LaCuerda.net · legal notice · privacy · es · en · pt · contact us
DINAMICO