Guitar Chords » P »Las Pastillas del Abuelo » Amar y envejecer (Tab)

Amar y envejecer
Las Pastillas del Abuelo

Lyrics, Chords & Tabs for Guitar, Bass & Ukulele

  • Fmaj7/9      D*         A*
    --3---    ---5---    ---0---
    --1---    ---3---    ---2---
    --2---    ---2---    ---2---
    --3---    ---3---    ---0---
    --0---    ---X---    ---X---
    --X---    ---X---    ---X---
    
    Otra cosa: cuando toquen el D comun
    casi siempre hace el arreglo de meterle el Dsus4
    
    Am  Fmaj7/9 Dm  G(x2)
    
    1)
    
    Am     Fmaj7/9 D*         G
      me escapé ... del mundo yéndome al norte,
    Am           Fmaj7/9         D*    G
      pero otro mundo esperaba allá.
    Am        Fmaj7/9 D*          G
    
  •   Fmaj7/9 Dm  G(x2)
    
    
    Am     Fmaj7/9 Dm         G
      me escapé ... del mundo yéndome al norte,
    Am           Fmaj7/9         Dm    G
      pero otro mundo esperaba allá.
    Am        Fmaj7/9 Dm          G
      Yo arrimé ...    siempre disparo a mansalva,
    Am           Fmaj7/9         Dm    G
      pero esa piel fue particular.
    
    
    A              E     D9             E
    La hacés Muy bien,    y aunque te hierva la sangre
    A          G              D9   E
    te encadenas para no llamar.
    A         E    D9       E
    ¿Cómo hacés?    Conozco todos tus trucos,
    A         G                D9  E
    
  • Les dejo una única estrofa, que es la que se toca con el Riff,
    pero no dejo los acordes del resto de la letra de la canción
    ya que ya los han subido a la página.
    
    Solo de guitarra
    Base: (Am - Fmaj7/9 – Dm – G) x4
    
    e|--------------------------------15b-15--|
    B|---------10-13-10~--15brp13-------------|
    G|----9-12--------------------------------|
    D|-12-------------------------------------|
    A|----------------------------------------|
    E|----------------------------------------|
    
    e|-15p12-14p12----12----------------------------------------------
    B|-------------15----15-12-15p12h14p12----15-----15-15----15-15---
    G|-------------------------------------14----14b-------14b--------
    D|----------------------------------------------------------------
    A|----------------------------------------------------------------
    E|----------------------------------------------------------------
    
    e|----------------------|
    B|----------------------|
    G|-14br-12----12-14-----|
    D|---------14-------14--|
    A|-------
  • E: ------------------------------------------------------
    B:-10--------------10------------------------------------
    G: ---9----------9-------------9-12-10-9-7-10---9-7-9-10-
    D: -----10-7-10--------7-10------------------------------
    A: ------------------------------------------------------
    E: ------------------------------------------------------
    
    ------------------------------------------------8-7------
    10-8--------------------------------------7-------10-8---
    ------10-9-7-----7----------7-9-7------------------------
    ---------------10------9-10--------10-9------------------
    ---------------------------------------------------------
    ---------------------------------------------------------
    
    Repite punteo inicial:
    
    Me escapé
    (I)
    8-7----------------------------------
    ----10-8----------------------------
    
  • MI |-------------------------------------
    SI |--10---------10---5-6-8-6-5-6--5-5-6-
    SOL|----9-------9----5---------7----7----
    RE |-----10-7-10-------------------------
    LA |-------------------------------------
    MI |-------------------------------------
    
    MI |-5-------------------------8-7-5-----
    SI |--8-6-5-------------5-----8-----8----
    SOL|--------7-5-7--4-5-7-7-5-4-----------
    RE |-------------------------------------
    LA |-------------------------------------
    MI |-------------------------------------
    
    
    "Me escape..."        "...Del mundo, llendome al Norte"
    
    MI |--8-7-5--------------        ||------------------5--
    SI |-------8-6-5---------        ||----5-6--8-6-5--5----
    SOL|------------7-5-7----        ||--7-----------7------
    
  • LEONARDO OUTEIRIÑO 17 AÑOS DE INDIO RICO PROVINCIA DE BUENOS AIRES.
    
    LAS OTRAS TABLATURAS CON LOS VERSOS Y LOS RIFFS ESTÁN BIEN. SÓLO FALTABA
    
    EL SÓLO DE GUITARRA QUE A CONTINUACIÓN SE LOS DEJO.
    
    SOLO DE GUITARRA DE AMAR Y ENVEJECER DISCO VERSIONES MINUTO
    
    3:30 AL 4:05.
    
    ESTA TABLATURA ESTA BIEN, LES ACONSEJO ESCUCHAR MUY BIEN LA CANCIÓN
    
    Y PONERLA MAS LENTA SI LES ES POSIBLE.(PARA ESCUCHAR LAS PARTES QUE
    
    INDIQUE EN LAS CUALES HAY QUE PRESTAR MUCHA ATENCIÓN).
    
    e|---5-8-7-5------------5---------------------------
    B|-5----------5-------5---8-5-----------------------
    G|--------------5-7b9---------7-5---5-7-5-----------
    D|--------------------------------7-------7-7-------
    A|--------------------------------------------------
    E|--------------------------------------------------
    
    e|------------------------------------------------
    B|------------------------------------------------
    G|-5h7p5---5-7---5---4----------------------------
    D|-------7-----7---7---5-7------------------------
    A|-
  • Escunchen el tema para sacarle el timepo y la velocidad a cada nota.
    
    E------------------|-----------15b17r---|
    B-------------13---|-15b-15p13----------|
    G-------12-14---14-|--------------------|
    D-12-14------------|--------------------|
    A------------------|--------------------|
    E------------------|--------------------|
    
    E-15-12-13-12--12--------------------------
    B------------15---13-15-12h13p12--12-13-15-
    G-------------------------------14---------
    D------------------------------------------
    A------------------------------------------
    E------------------------------------------
    
    E--------------------------------------|
    B-------15-----15----------------------|
    G-14b16---14b16---14b16r-12---12--14---|
    D---------------------------14------14-|
    A--------------------------------------|
    E--------------------------------------|
    
    E--------------------------------------------------------------|
    B-----------------------12--------13-------------------8-------|
    G--------------12-14b16*----14p12--
  • e||-------------------
    B||--0h1p0------------
    G||----------0-0h2p0-0
    D||-------------------
    A||-------------------
    E||-------------------
    
    
    Riff1*:
    
    e||---------------------
    B||--0h1p0-------------0
    G||----------0-0h2p0-0--
    D||---------------------
    A||---------------------
    E||---------------------
    
    
    Riff2: G
    
    
  • +
    ¡Colabora con nosotros!
    Envíanos tu versión de esta canción

Amar y envejecer Lyrics
me escapé ... del mundo yéndome al norte,
pero otro mundo esperaba allá.
Yo arrimé ... siempre disparo a mansalva,
pero esa piel fue particular.
La hacés Muy bien, y aunque te hierva la sangre
te encadenas para no llamar.
¿Cómo hacés? Conozco todos tus trucos,
pero aún así me das que pensar.
Te guardas... el orgullo donde nadie
pueda dudar de que lo tenés.
Y así vas... sin perder el objetivo,
pidiendo dos cuando querés tres.
Ya estoy bien, ya me ordené en mi desorden,
y aquellas voces no me hablan más.
Por favor, mentime y dame la espalda,
otra vez no quiero patinar.
Y me esperás, más de la cuenta
siendo siempre la que yo soñe.
Y firme yo, me encierro en que es peor,
amar y envejecer.
¿Qué esperás?... Mostrame todas las cartas,
a cara de perro no sé jugar.
Me endulzás... el ego siendo sincera,
dale un poco y te va a pedir más.
Lo sabés, no hay arma más seductra,
que contestar siempre la verdad.
Siempre estás, del otro lado del muro
de los lamentos que me contás.
No sé hablar.. sin decir malas palabras:
amantes, mentira, infidelidad.
Nunca más... te vendo gato por liebre,
por no ser cruel, pierdo honestidad.
No es el fin, el problema son los medios,
no es algo que pueda respetar.
Y no está mal, que terminen en las historias,
mientras haya historias que contar.
Y ya no esperarás, más de la cuenta,
y siempre serás la que yo soñé.
Y yo seguiré pensando que es peor,
amar y envejecer.
Nazareno Joaquin/ Maradona_larenga@hotmail.com
Ya estoy bien, ya me ordene en mi desorden..




[Amar y envejecer acordes][Amar y envejecer cifra]
© LaCuerda.net · legal notice · privacy · es · en · pt · contact us
DINAMICO