Guitar Chords » P »Pappo » El Hombre Suburbano (Tab)

El Hombre Suburbano
Pappo

Lyrics, Chords & Tabs for Guitar, Bass & Ukulele

  •    G7
    Estamos en el tiempo
    G7
    En que el ser humano
    G7
    Vive con razón de ser
         C7
    Con sólo unas palabras
                        G7
    Nunca se puede resolver
         D7
    Pero pega una trompada
       C7
    Y tira todo
         D7
    Se cree ya muy listo
     C7             G7   D7
    Por su modo de ser
    
    Un hombre sin historia
    
  • 1|---------------------------------------------|
    2|---3-----5--3---------5-3--------------------|
    3|---3h4---5--3h4^3^4---5-3h4^3^4--------------|
    4|-5-----5------------5-----------5-3----------|
    5|------------------------------------5-4-3----|
    6|------------------------------------------6--|
    
      DO7                                         SOL7
    1|-----------------------------------------10~--------
    2|----8-10b~~-----11p10p8---10p8-------10b~---10b~~~--
    3|--9-----------9---------9------9--------------------
    4|----------------------------------------------------
    5|----------------------------------------------------
    6|----------------------------------------------------
    
    1|--------------------------
    2|-8---8--8-----------------
    3|---9----10br-7/5-3h4------
    4|---------------------5----
    5|-----------------------/5-
    
  • intro:  G7  C7 C7 G7 G7 D7 C7 G7 D7
    
      G7
    Estamos en el tiempo,
    en que el ser humano,
    vive con razón de ser;
        C7
    con sólo unas palabras,
                       G7
    un caso puede resolver, ah!.
         D7
    Pero pega una trompada
      C7
    y tira todo;
         D7
    se cree ya muy listo
    C7              G7       D7
    con su modo de ser, ah!.
    
        G7
    
  • INTRO:
    
    e|-----------------------------------------------------------------------
    B|---------------------------------------10-13b--13-12-10--10-12--13b----
    G|-----6---6h7-6---6h7-6--------------/11------11--------11-----11-------
    D|---7---7-------7-------7-5---------------------------------------------
    A|---------------------------7-6-5---------------------------------------
    E|---------------------------------8-------------------------------------
    
    e|--12*10----------------------------------------------------------------
    B|--------13b~~--13-12-10--10-/10--10-8-------------------8-7-10-7-10-7--
    G|-----------------------11------------9-8-7----------7-10---------------
    D|------------------------------------------10-7--7-10-------------------
    A|----------------------------------------------10-----------------------
    E|-----------------------------------------------------------------------
    
    e|---------------------12-----9---8---7--5-------------------------------
    B|--/13-12-10--12-12/14--10-
  • e------------------------------------------------------
    B--------8--10--10b-10b-10b-10b--10br-p8---8-----------
    G---7/9----------------------------------9-------------
    D------------------------------------------------------
    A------------------------------------------------------
    E------------------------------------------------------
    
    
    e-------10-----10---------------------------------
    B---10b----10b----10br-8---8----------------------
    G------------------------9---10b------------------
    D---------------------------------x/--------------
    A---------------------------------x/--------------
    E---------------------------------x/--------------
    
    e------------------------------------------------
    B--------------------------8-10---10-------------
    G-----------------7-10--9-------9----------------
    D----------8--10---------------------------------
    A---8--10----------------------------------------
    
  • Intro/Base Del Solo
       Do7                             Sol7
    1|-----------------5-5-3-3-2-2-------------------------------------
    2|-----2-2-3-3-4-5-------------5-2-----------------5-5-3-3-2-2-----
    3|-3-3---------------------------------2-2-3-3-4-5-------------5-2-
    4|---------------------------------3-3-----------------------------
       Re7              Do7             soL
    1|-----------------------------------------------------------
    2|-----4-4-5-5-6-7-------------------------------------------
    3|-5-5--------------3-3-2-2-1-1-0-0-----2-2-3-3-4-4-5--3-4-5-
    4|----------------------------------3-3----------------------
    
    
    Estrofas
       SOL7
    G|-----------------------------------------------------------
    D|-----------------5-5-3-3-2-2-------------------------------
    A|-----2-2-3-3-4-5-------------5-2------2-2-3-3-4-5---0-1-2--
    E|-3-3------------------------------3-3-------------3--------
    
       Do7                             Sol7
    1|-----------------5-5-3-3-2-2-------------------------------------
    2|--
  • Aca le va este temazo del carpo de su primer disco. Es de su album de
    estudio del año 1971 (para mi su mejor “version”, además de ser
    la original). Esta gran linea de bajo la tocaba David Lebon.
    
    (esperar la intro de la guitarra y luego esto)
    G|-----------------5-5-4-4-3-3------------------------------------
    D|-----2---3-3-4-5-------------5-3-----------------5-5-3---2------
    A|-3-----------------------------------2---3-3-4-5-----------3-5--
    E|---------------------------------3------------------------------
    
    G|-------------------5-3-2-----------------------------------------
    D|-----4---5-5-6-7----------5-2------------------------------------
    A|-5---------------3------------5-2-----2---3---4---5-5-5-5-5-5-5-5
    E|----------------------------------3------------------------------
    “Estamos en el tiempo, en que el ser humano, vive con razón de ser;
    G|----------------------------------------------------------------
    D|-----------------5-5-3---2-2------------------------------------
    A|-----2
  • +
    ¡Colabora con nosotros!
    Envíanos tu versión de esta canción
  • Tutorial
    HD
    El hombre suburbano -Pappo (solo de guitarra con TAB)
    0:32

El Hombre Suburbano Lyrics
Estamos en el tiempo
En que el ser humano
Vive con razón de ser
Con sólo unas palabras
Nunca se puede resolver
Pero pega una trompada
Y tira todo
Se cree ya muy listo
Por su modo de ser
Un hombre sin historia
Sin tiempo y sin memoria
Puede reaccionar así
Pero no se da cuenta
Su personalidad en venta está
El hombre suburbano
Sigue su rutina
Sin darse cuenta que
Su vida terminará
Un hombre sin historia...




[El Hombre Suburbano acordes][El Hombre Suburbano cifra]
© LaCuerda.net · legal notice · privacy · es · en · pt · contact us
DINAMICO