Guitar Chords » O »Oscar Chávez » Por tí (Tab)

Por tí
Oscar Chávez

Lyrics, Chords & Tabs for Guitar, Bass & Ukulele

  •    Am            D7   G            C    Am         B7               E
    e--15---14--12--14---14---12--11--12---12--11--9--11--11----9--11--12-
    B---------------------------------------------------------------------
    G---------------------------------------------------------------------
    D---------------------------------------------------------------------
    A---------------------------------------------------------------------
    E---------------------------------------------------------------------
    
    
        Em
    Por ti
                   B7
    yo dejé de pensar en el mar,
         Am
    por  ti
                Em
    yo dejé de fijarme en el cielo.
    
        Am      D7
    Por ti
    
  •     Em                SI7
    POR TI YO DEJE DE PENSAR EN EL MAR
         Am              Em
    POR TI YO DEJE DE FIJARME EN EL CIELO
         Am D7
    POR TI
                     G             C
    ME HA DADO POR LLORAR COMO EL MAR
                       B7
    ME HE PUESTO HA SOLLOZAR COMO EL CIELO
                      Em
    ME HA DADO POR LLORAR
        Em                B7
    POR TI LA TERNURA SE NIEGA CONMIGO
        Am                  Em
    POR TI LA AMARGURA ME SIGUE Y LA SIGO
        Am D7
    POR TI
                        G            C
    ME ESTOY VOLVIENDO LOCO DE CELOS
    
  • e-3----3-2-0-2----2---2----2-0---0----0---0----0----------2
    B---1----------1---1----1------3---0---0----1----4-2-4-----
    G----2----------2---2----2----------0---0----2---------2---
    D-2----2-2-0-0-------------------2--------2----2--------4--
    A---------------------2----2-2-2--------------------------2
    E----------------------------------------------------------
    
    e-------0-
    B-4-2-4---
    G---------  x 2
    D-------2-
    A---------
    E---------
    
    Esta es la perte mas complicada, loo demas es solo:
    
      Em   B7   Am   Em   Am   D7   G   Em   Am   B7   Em
    
    Y el final es igual.
    
    
  • e|-3--------3--2--0-|-2--------2-------|
    B|-------1----------|-------1-----1----|
    G|----0-------------|----2-----------2-|
    D|-2----------------|-0----------------|
    A|------------------|------------------|
    E|------------------|------------------|
       Am7                D7
     |-3--------3--8--8-|
     |-------1----------|
     |----0-------------|
     |-2----------------|
     |------------------|
     |------------------|
    
    
    e|-2--------2--0----|-0--------0-------|
    B|-------3--------3-|-------0-----0----|
    G|----4-------------|----0-(0)-------0-|
    D|------------------|---(2)------------|
    A|------------------|-3----------------|
    
  • +
    ¡Colabora con nosotros!
    Envíanos tu versión de esta canción

Por tí Lyrics
Por ti
yo dejé de pensar en el mar,
por ti
yo dejé de fijarme en el cielo.
Por ti
me ha dado por llorar como el mar,
me he puesto a sollozar como el cielo,
me ha dado por llorar.
Por ti
la ternura se niega conmigo
por ti
la amargura me sigue y la sigo.
Por ti
me estoy volviendo loco de celos,
se vuelven contra mi mis anhelos,
se vuelven contra mi.
Por ti
la vida se me ha vuelto un infierno,
por ti
estoy muerto de amor tan enfermo
Por ti
se han vuelto llaga el sol y el dolor,
se ha vuelto mal la flor y el amor,
se ha vuelto mal la flor.
Por ti
el mar es la locura del cielo,
por ti
el llanto es una llaga de celos.
Por ti
el dolor es el sol sin la flor,
el infierno es amor tan eterno,
el infierno es amor.
Por ti,
por ti,
por ti,
por ti.




[Por tí acordes][Por tí cifra]
© LaCuerda.net · legal notice · privacy · es · en · pt · contact us
DINAMICO