Guitar Chords » N »La Nueva Luna » Tu Presa (Tab)

Tu Presa
La Nueva Luna

Lyrics, Chords & Tabs for Guitar, Bass & Ukulele

  • e--5-5-3h5---------8--------------6--------------------------------
    b---------6--5-5-5---5-6-5-3-3-3----3-5-3-3h5p3--------------------
    g-----------------------------------------------5-5----------------
    d------------------------------------------------------------------
    a------------------------------------------------------------------
    e------------------------------------------------------------------
    
    e--5-5-3h5---------8--------------6---3-5-6-5----------------------
    b---------6--5-5-5---5-6-5-3-3-3-----------------------------------
    g------------------------------------------------------------------
    d------------------------------------------------------------------
    a------------------------------------------------------------------
    e------------------------------------------------------------------
    
    e--5-5-3h5---------8--------------6--------------------------------
    b---------6--5-5-5---5-6-5-3-3-3----3-5-3-3h5p3--------------------
    g-----------------------------------------------5-5----------------
    d------------------------------------------------------------------
    a------------------------------------------------------------------
    e------------------------------------------------------------------
    
  • +
    ¡Colabora con nosotros!
    Envíanos tu versión de esta canción

Tu Presa Lyrics
Bueno esta es todo la intro espero que les sirva!




[Tu Presa acordes][Tu Presa cifra]
© LaCuerda.net · legal notice · privacy · es · en · pt · contact us
DINAMICO