Guitar Chords » N »La Nueva Luna » Recuerdos de mí (Tab)

Recuerdos de mí
La Nueva Luna

Lyrics, Chords & Tabs for Guitar, Bass & Ukulele

  • C                     G
    Hoy me entere que te vas 
        F                      
    y dicen tus amigas que es
              C        G
    para olvidarte de mi
    C            
    Pero yo se que
              G          
    en tu corazon llebaras
        F
    recuerdos de mi 
       C                G
    y nunca podras olvidar
    
    C
    Que fui el primero 
                F
    en llegar a ti
             C
    
  • La Nueva Luna
    
    Recuerdos de mi
    
    Intro
    
    
    1|----------------------------------------------------
    2|------------7~9--------------------10-13-12--10-----
    3|----------9-----10-9--------9-12----------------12--
    4|-------10--------------9~10-------------------------
    5|----------------------------------------------------
    6|----------------------------------------------------
    
    
    1|--------------------------------------------------
    2|--14~15-1515-13-12-13----10-12-13-12-10-13--------
    3|--------------------------------------------------
    4|--------------------------------------------------
    5|--------------------------------------------------
    6|--------------------------------------------------
    
    
    
    
    1|---------------------------------------------------------------------|
    2|----------------------------------10---------------------------------|
    3|--9-10-12-10-9-12---------12---12~10-9-------------------------------|
    4|----------------------------12----------------12--9~10---------------|
    5|------------
  • C                     G
    Hoy me entere que te vas
    F
    y dicen tus amigas que es
           C        G
    para olvidar-te de mi
    C                    G      
    Pero yo se que en tu corazon llevaras 
        F                        C       G
    recuerdos de mi, y nunca podras olvidar
    F                G           C
    que fui el primero en llegar a ti
                 G            F
    y tu con el no seras feliz
                 G           C
    te aseguro no seras feliz.
    
    C       G              F
    Que tiene el que no tenga yo? 
    G                  F      
    
  • +
    ¡Colabora con nosotros!
    Envíanos tu versión de esta canción

Recuerdos de mí Lyrics
Hoy me entere que te vas
y dicen tus amigas que es
para olvidarte de mi
Pero yo se que
en tu corazon llebaras
recuerdos de mi
y nunca podras olvidar
Que fui el primero
en llegar a ti
y tu con el
no seras feliz
te aseguro no seras feliz
Estribillo:
que tiene el que no tenga yo
y no me digas que mas amor
porque fui el primero que te amo




[Recuerdos de mí acordes][Recuerdos de mí cifra]
© LaCuerda.net · legal notice · privacy · es · en · pt · contact us
DINAMICO