Guitar Chords » N »La Nueva Luna » No me lo creo (Tab)

No me lo creo
La Nueva Luna

Lyrics, Chords & Tabs for Guitar, Bass & Ukulele

  • F#m                    Bm
    Jamás imagine, que sucediera algo asi 
    E
    quien me lo hiba a decir 
      A                          F#m
    con lo lejos que estabas tu de mi
        Bm           
    tan solo en mis sueños 
           C#
    fuiste mia.
    
    Si estando junto a ti, no me parece realidad 
    fuiste como una estrella
    que yo nunca pude alcanzar
    te alejabas mas y mas 
    en la inmensidad.
    
    ESTRIBILLO:
                    Bm                      E
    Estoy tan enamorado que aun no puedo creerlo 
    
  • que estes A MI lado diciéndome te quiero          besando mi 
    
    1|------------------------6---6-------6-8-6---------6-8-6-----|
    2|----------------------3--2s3-3---6-8------8-6--6-8------8-6-|
    3|----2-----2----2----------------8-------------8-------------|
    4|-1h3--3--3--1h3--3------------------------------------------|
    5|------------------------------------------------------------|
    6|------------------------------------------------------------|
    
    
    boca, acariciando mi pelooooooo, no me lo creo
    
    
    1|--------------------------------------------------10---|
    2|-----13----13----13----13-----------------------10-----|
    3|--------------------------------------11--10-11--------|
    4|-9s10--9s10--9s10---9s10-10---12-11-12-----------------|
    5|-------------------------------------------------------|
    6|-------------------------------------------------------|
    
    
  • +
    ¡Colabora con nosotros!
    Envíanos tu versión de esta canción

No me lo creo Lyrics
Jamás imagine, que sucediera algo asi
quien me lo hiba a decir
con lo lejos que estabas tu de mi
tan solo en mis sueños
fuiste mia.
Si estando junto a ti, no me parece realidad
fuiste como una estrella
que yo nunca pude alcanzar
te alejabas mas y mas
en la inmensidad.
ESTRIBILLO:
Estoy tan enamorado que aun no puedo creerlo
que estes a mi lado diciéndome te quiero
besando mi boca, acariciando mi pelo, no me lo creo
Estoy tan enamorado que aun no puedo creerlo
que estes a mi lado diciéndome te quiero
besando mi boca, acariciando mi pelo, no me lo creo.
Me siento tan feliz, que no se como expresar
lo que siento por ti
eres algo tan especial
creo estar en un sueño
en el que no quiero despertar.
Si estando junto a ti, no me parece realidad
fuiste como una estrella
que yo nunca pude alcanzar
te alejabas mas y mas
en la inmensidad.
ESTRIBILLO
ESTRIBILLO




[No me lo creo acordes][No me lo creo cifra]
© LaCuerda.net · legal notice · privacy · es · en · pt · contact us
DINAMICO