Guitar Chords » N »No Te Va Gustar » Chau (Tab)

Chau
No Te Va Gustar

Lyrics, Chords & Tabs for Guitar, Bass & Ukulele

  • Bm G A D F#   x 2
    
    Bm                    G
      Estábamos los dos mirando el mar
    A                  D    F#
     Cuando la tarde moría
    Bm              G
      Como moría lo nuestro
    A                 D     F#
     Juro que no lo sabia
    
    
    Bm               G
      Mire para mi derecha
    A               D      F#
     Vi que desaparecías
    Bm                    G
      Grite con todas mis fuerzas
    A                  D    F#
     y note que no me oías
    
  • INTRO Bm Em A D F#   x 2
    
    
       Bm                      Em
    Estábamos los dos mirando el mar
       A              D    F#
    cuando la tarde moría
      Bm             Em
    como moría lo nuestro
       A             D     F#
    juro que no lo sabia.
    
    
     Bm              Em
    Mire para mi derecha
      A            D      F#
    vi que desaparecías
      Bm                 Em
    grite con todas mis fuerzas
      A               D    F#
    
  • INTRO Bm Em7 A D F#   x 2
    
    
       Bm                      Em7
    Estábamos los dos mirando el mar
       A              D    F#
    cuando la tarde moría
      Bm             Em7
    como moría lo nuestro
       A             D     F#
    juro que no lo sabia.
    
    
     Bm              Em7
    Mire para mi derecha
      A            D      F#
    vi que desaparecías
      Bm                 Em7
    grite con todas mis fuerzas
      A               D    F#
    
  • Intro: (Em, Am, D, G, B) X2
    
    Em                  Am
    Estábamos los dos mirando el mar
    D                  G  B
    Cuando la tarde moría
    Em              Am
    Como moría lo nuestro
    D                 G  B
    Juro que no lo sabia
    
    Em               Am
    Miré para mi derecha
    D               G  B
    Vi que desaparecías
    Em                    Am
    Grite con todas mis fuerzas
    D                  G  B
    y note que no me oías
    
    
  • G|---------------------------------------|
    D|---------------------------------------|<-Esto todo el tiempo
    A|----------4-5----------------2-4-------|
    E|--7---5-7-----7-3------5-2-5-----5-2---|
    
    Gr.
    E|--------------------------------------|
    B|--8-8-8-8-7-5~-----7-7-7-7-5-3~-------|
    G|--9-9-9-9-7-6~-----7-7-7-7-6-4~-------|<-x2
    D|--------------------------------------|
    A|--------------------------------------|
    E|--------------------------------------|
    
    Intro: Bm G A D F# Bm   x 2
    
    Verso:
    Bm                    G
     Estábamos los dos mirando el mar
    A                 D    F# Bm
     cuando la tarde moría
    
  • G|---------------------------------------|
    D|----------------2----------------------|<-Esto todo el tiempo
    A|--2---0-2-4-5-2--------0---0-2-4-0-4/5-|
    E|-------------------------3-------------|
    
    Gr.
    E|--------------------------------------|
    B|--8-8-8-8-7-5~-----7-7-7-7-5-3~-------|
    G|--9-9-9-9-7-6~-----7-7-7-7-6-4~-------|<-x2
    D|--------------------------------------|
    A|--------------------------------------|
    E|--------------------------------------|
    
    Intro: Bm Em A D A   x 2
    
    Verso:
    Bm                    Em
     Estábamos los dos mirando el mar
    A              D    A
     cuando la tarde moría
    
  • ESTROFAS
    
       Bm           G
    E/----2---------3--/
    A/-2----2-4-5-2----/
    D/-----------------/
    G/-----------------/
    
       A             F#
    E/-5--0-5-7----5----/
    A/-----------4---5--/
    D/------------------/
    G/------------------/
    
       Bm           G
    E/----2---------3--/
    A/--2---2-4-5-2----/
    D/-----------------/
    G/-----------------/
    
       A             F#
    E/-5--0-5-7----5----2--/
    A/-----------4---5----2/
    D/---------------------/
    G/---------------------/
    esta base se repite durante todo el tema.
    
    
    
    
    
    ... lo que me corre en las venas...
        Em         F#
    E/--3--3---------------2--2/
    A/-----------------4-4-----/
    D/---5--5--2-2--4-4--------/
    G/-------------------------/
    
    
    
    ESTRIBILLO
    
      Bm           G
    E/----2--------3---/
    A/--2---2-4-5-2----/
    D/-----------------/
    G/-----------------/
    
      A               F#
    E/-5--0-5-7---5-----2-/
    A/----------4---5----2/
    D/--------------------/
    G/--------------------/
    
      Bm            G
    E/----2--------3---/
    A/--2---2-4-5-2----/
    D/-----------------/
    G/-----------------/
    
    
  • +
    ¡Colabora con nosotros!
    Envíanos tu versión de esta canción
  • Tutorial
    HD
    Como tocar "Chau" NO TE VA GUSTAR en Guitarra Acustica (HD)
    Tutorial Acordes
    7:12

Chau Lyrics
Estábamos los dos mirando el mar
cuando la tarde moría
como moría lo nuestro
juro que no lo sabia.
Mire para mi derecha
vi que desaparecías
grite con todas mis fuerzas
y note que no me oías.
Me quede toda la noche en la arena
intente que algo valiera la pena
no puedo conseguir
cambiar, ni corregir
lo que me corre en las venas.
ESTRIBILLO
Corazón,
hoy no dejes de latir
te alejaste un día
ahora decidiste venir.
Ha pasado mas de un año y vos no estas
por que habría de creerte?
hubiera dado la vida y mucho más
por solo volver a verte.
No podría darme el lujo
de ceder ante tu llanto
no pienso abrir las heridas
de haberte querido tanto.
Escuche
pero deje que se fuera
recordé
todo lo libre que era
No puedo conseguir
cambiar, ni corregir
lo que me corre en las venas.
ESTRIBILLO
Corazón,
hoy no dejes de latir
te alejaste un día
ahora decidiste venir.
Corazón,
hoy no dejes de latir
te alejaste un día
ahora decidiste venir.
Chau!




[Chau acordes][Chau cifra]
© LaCuerda.net · legal notice · privacy · es · en · pt · contact us
DINAMICO