Guitar Chords » N »Natalia Lafourcade » Tú si sabes quererme (Tab)

Tú si sabes quererme
Natalia Lafourcade

Lyrics, Chords & Tabs for Guitar, Bass & Ukulele

  • Intro: Am
    
                      Am
    Ha pasado tanto tiempo
          Dm        G        Am
    Finalmente descubrí tus besos
                         Am
    Me enredaste en tu mirada
           Dm         G          Am
    Me abrazaste con todos mis defectos
                  Dm     G                Am
    Tú sí sabes quererme , tú sí sabes adorarme
                                     Dm
    Mi amor no te vayas quédate por siempre
            G                    Am
    Para siempre, para siempre amarte
    
                    Dm      G                   Am
    Corazón tú sí sabes quererme como a mí me gusta
                     Dm            G              Am
    
  • C#m x4  (9 11 11 9 9 9)
    C#m F#m B C#m  x2
    
                    F#m
    Ha pasado tanto tiempo
             B              C#m
    Finalmente descubrí tus besos
                   F#m
    Me enredaste en tu mirada
             B            C#m
    Me abrazaste con todos mis defectos
    
                   F#m
    Tú sí sabes quererme
    B                    C#m
    Tú sí sabes adorarme mi amor
                       F#m
    No te vayas quédate por siempre
                B            Ab   C#m
    Para siempre, para siempre amarte
    
  • e|--------------------------------------------------------------
    b|-------4---5---7---5---4---5---------4-4---5------------------
    g|----6-------------------------------------------6-------------
    d|------------------------------7-------------------6-----------
    a|--------------------------------------------------------------
    E|--------------------------------------------------------------
    
    e|-----------------------------------------------4---4----------
    b|-------4---5---7---5---4---5---------4-4-4-5-4---5------------
    g|----6---------------------------------------------------------
    d|------------------------------7-------------------------------
    a|--------------------------------------------------------------
    E|--------------------------------------------------------------
    
    e|--------11--12--14--12--11--12-12------11-11--12--------------
    b|----14--------------------------------------------14----------
    g|-----------------------------------------------------13-------
    d|--------------------------------------------------------------
    a|--------------------------------------------------------------
    E|--------------------------------------------------------------
    
  • +
    ¡Colabora con nosotros!
    Envíanos tu versión de esta canción
  • Tutorial
    HD
    Como Tocar Tu Si Sabes Quererme Natalia Lafourcade
    8:23

Tú si sabes quererme Lyrics
Ha pasado tanto tiempo
Finalmente descubrí tus besos
Me enredaste en tu mirada
Me abrazaste con todos mis defectos
Tú sí sabes quererme
Tú sí sabes adorarme mi amor
No te vayas quédate por siempre
Para siempre, para siempre amarte
Corazón tú sí sabes,
Quererme como a mí me gusta
Soy la flor encendida que da color
Al jardín de tu vida
Corazón tú sí sabes,
Quererme como a mí me gusta
Por favor no me dejes
Que soy valiente en corresponderte
Ha pasado tanto tiempo
Finalmente sé que estoy dispuesta
Es tan difícil encontrar un amor
Que aquí me quedo con heridas bien abiertas
Ya no me importa lo que piensen los demás
Aquí me quedo para ser testigo siempre de la vida
Aquí por siempre, para siempre
Para siempre amarnos
Corazón, corazón tú sí sabes
(Quererme como a mí me gusta)
Corazón tú sí sabes quererme mi amor
(Quererme como a mí me gusta)
Ay no te vayas, quédate por siempre
(Quererme como a mí me gusta)
Que soy valiente en corresponderte mi amor
(Quererme como a mí me gusta)




[Tú si sabes quererme acordes][Tú si sabes quererme cifra]
© LaCuerda.net · legal notice · privacy · es · en · pt · contact us
DINAMICO