Guitar Chords » N »Nacha Pop » Lucha de Gigantes (Tab)

Lucha de Gigantes
Nacha Pop

Lyrics, Chords & Tabs for Guitar, Bass & Ukulele

  •                         G         (320033)
                            A/C#      (x4222x)
                            Bm        (x24432)
                            Em        (022000)
                            A         (002220)
                            F#m7add11 (x44200)
                            G6        (x55430)
                            F#7       (x9897x)
                            Em7       (022030)
                            E         (022100)
    
    Diagramas:
                         | F#m7|
       G|A/C#| Bm | Em |A|add11|G6|F#7|Em7|E
    e|-3--X----2----0---0---0---0---X---0--0-
    B|-3--2----3----0---2---0---3---7---3--0-
    G|-0--2----4----0---2---2---4---9---0--1-
    D|-0--2----4----2---2---4---5---8---2--2-
    A|-2--4----2----2---0---4---5---9---2--2-
    E|-3--X----X----0---0---X---X---X---0--0-
    
  • INTRODUCCION [ G A D Em ] 2 VECES
     
    G                  A
    Lucha de gigantes
         D                        Em
    convierte el aire en gas natural
    G             A                D
    un duelo salvaje advierte
                       Em
    lo cerca que ando de entrar
    
            A               F#m
    en un mundo descomunal
             G               A
    siento mi fragilidad.
     
    
    G             A
    Vaya pesadilla
         D                        Em
    
  •                         G         (320033)
                            A/C#      (x4222x)
                            Bm7       (x24232)
                            Em        (022000)
                            A         (002220)
                            D/F#      (200232)
                            F#m       (244222)
                            G6        (300033)
                            F#m7      (x9897x)
                            Em7       (022030)
                            E         (022100)
    
    Diagramas:
                         | |
       G|A/C#| Bm7|E m |A| D/F#|G6|F#m7|Em7|E
    e|-3--X----2----0---0---2---3---X---0---0-
    B|-3--2----3----0---2---3---3---7---3---0-
    G|-0--2----2----0---2---2---0---9---0---1-
    D|-0--2----4----2---2---0---0---8---2---2-
    A|-2--4----2----2---0---0---0---9---2---2-
    
  • G              A
    Lucha de gigantes
            D                      Em
    convierte el aire en gas natural
    G              A           D
    y un duelo salvaje advierte
                          Em
    lo cerca que ando de entrar
    
            A
    En un mundo descomunal
    Bm                Em
    siento mi fragilidad...
    
    
    G        A
    Vaya pesadilla
            D                    Em
    corriendo con una bestia detrás
    G              A
    
  • Esta rola es muy facil solo hay que agarrar bieb los tiempos...
    
     EL BAJO COMIENZA EN    Me da miedo la enormidad...
                   A            F#m          G  
    G|--4---------|------------|------------|---------2--|
    D|2---2-0-----|------------|------------|-----2-5----|
    A|--------2-1-|0-----------|------------|---3--------|
    E|---RAPIDO---|------------|2----0------|3-----------|
     
     ( CORO 1 Y 2 )
      Bm           F#m          G            F#m
    G|------------|------------|------------|------------|
    D|------4-2---|------------|------------|------4-2---|
    A|2---------4-|---4--------|------------|----------4-|
    E|------------|2-----2-2-2s|3-----3-----|2-----------|
    
      Em           Bm           F#m          G
    G|------------|------------|------------|------------|
    D|------------|-------4-2--|------4-----|------------|
    A|-------2----|2----------4|------------|------------|
    E|0--------0--|------------|2--2--------|3-----3--3--|
    
      F#m          Em
    G|------------|------------|
    
  • +
    ¡Colabora con nosotros!
    Envíanos tu versión de esta canción
  • Tutorial
    HD
    Como tocar Lucha de gigantes en guitarra (HD)
    Tutorial
    2:50
  • Tutorial
    HD
    Lucha de Gigantes - Nacha Pop - Letra Acordes Guitarra Como tocar
    6:36
  • Tutorial
    HD
    Como tocar LUCHA DE GIGANTES en guitarra
    TABS ✔️ ACORDES ✔️ TUTORIAL
    8:50
  • Tutorial
    como tocar Lucha de gigantes en guitarra
    11:37
  • Tutorial
    Como tocar Lucha de gigantes Acordes
    2:26

Lucha de Gigantes Lyrics
Lucha de gigantes
convierte el aire en gas natural
un duelo salvaje advierte
lo cerca que ando de entrar
en un mundo descomunal
siento mi fragilidad.

Vaya pesadilla
corriendo con una bestia detras
dime que es mentira todo
un sueño tonto y no más
me da miedo la enormidad
donde nadie oye mi voz

Deja de engañar, no quieras ocultar
que has pasado sin tropezar
monstruo de papel, no se contra quien voy
es que acaso hay alguien más aqui.

Creo en los fantasmas terribles
de algun extraño lugar
y en mis tonterias para hacer tu risa estallar
en un mundo descomunal
siento tu fragilidad

Deja de engañar, no quieras ocultar
que has pasado sin tropezar
monstruo de papel, no se contra quien voy
o es que acaso hay alguien más aqui

Deja que pasemos sin miedo...




[Lucha de Gigantes acordes][Lucha de Gigantes cifra]
© LaCuerda.net · legal notice · privacy · es · en · pt · contact us
DINAMICO