Guitar Chords » M »Música de TV » El chavo del 8 (Tab)

El chavo del 8
Música de TV

Lyrics, Chords & Tabs for Guitar, Bass & Ukulele

  • 1e-3-0-0-0--3-0-0----12-10-8-7-5-3-1-0-1-3-(3)-------------------------
    2b---------------------------------------------------------------------
    3g---------------------------------------------------------------------
    4D---------------------------------------------------------------------
    5A---------------------------------------------------------------------
    6E---------------------------------------------------------------------
    
    1e-3-0-0-0--3-0-0----12-10-8-7-5-3--4-5-(5)-----------------------------
    2b----------------------------------------------------------------------
    3g----------------------------------------------------------------------
    4D----------------------------------------------------------------------
    5A----------------------------------------------------------------------
    6E----------------------------------------------------------------------
    
    1e-7-5-5-5--10-7-7-7--10-7-10-7--12-8-8-8-------------------------------
    2b-----------------------------------------------------
  • Es muy facil de aprender.
    Les recomiendo que para que la entiendan bien
    se ayuden con esto http
    ://www.chavodel8.com/videos/introducciones/elchavo-1976.php
    
    E----------------------------------------
    B---5-5-5---5-5-5----5---5---5-5---------
    G-0-------0--------0---0---0-------------
    D----------------------------------------
    A----------------------------------------
    E----------------------------------------
                                             _
    E---------------------------------------- |
    B---5-5-5---5-5-5----5---5---5-5--------- |
    G-0-------0--------0---0---0------------- | Este es programa N1
    D---------------------------------------- | de la television humoristica
    A---------------------------------------- | EL CHAVO
    E----------------------------------------_|
    
                                             _
    E-3-0-0-0-3-0-0--|-8-7-5----------------| |
    B----------------|-------8-6-5-3--------| |
    G----------------|---------------5-7-9--| |
    D----------------|----------------------| |
    A-----
  • Pues es otra manera de tocar el tema, para mí suena mejor así..
    ahi les va.
    
    e|-----------------10-8-6--------------------------------10-8-6-----------|
    B|-/6-------/6------------10-8-6-------6--/6-------/6-----------10-8-6-7-8|
    G|----7-7-7----7-7---------------8-7-8-------7-7-7----7-7-----------------|
    D|------------------------------------------------------------------------|
    A|------------------------------------------------------------------------|
    E|------------------------------------------------------------------------|
    
    e|--/6-------/8----------8----8----/10----10------------------------------|
    B|-----8-8-8----10-10-10---10---10-----11----11---------------------------|
    G|------------------------------------------------------------------------|
    D|------------------------------------------------------------------------|
    A|------------------------------------------------------------------------|
    E|------------------------------------------------------------------------|
    
    e|-----
  • (A)
    
    1e--0-------0------9-7----------------0--------|
    2b----2-2-2---2-2------10-9-7-------3----------|
    3g----------------------------9-7-6------------|
    4D-------------------0-------------------------|
    5A--0------------------------------------------|
    6E------4---2---0-------------0---5-4-2--0h2h4-|
    
    |-0-------0------9-7------------------
    |---2-2-2---2-2------10-9-7---9-10----
    |---------------------------9---------
    |------------------0------------------
    |-0-----------------------------0-----
    |-----4---2---0-------------0------T5-
    
    (B)
    
    1e--5-0-0-0-7-----7---7---9----9----
    2b------------9-9---9---9---10---10-
    
  • Se trata de la cortina del chavo del ocho.
    Es fácil y divertida, solo pónganse a tocar.
    
    5 4 4 4
    
    5 4 4 4
    
    (5) 5 (5) 5 (4) 4 (4) 4 (4) 5
    
    5 4 4 4
    
    5 4 4 4
    
    (5) 5 (4) 4 (4) 4 (4) 5
    
    5 4 4 4
    
    6 5 5 5
    
    6 5 6 5 (6) 5 (6) 5
    
    
    Bueno, espero les sirva y les agrade.
    Ante cualquier duda, no dejen de escribirme o agregarme al MSN.
  • +
    ¡Colabora con nosotros!
    Envíanos tu versión de esta canción






[El chavo del 8 acordes][El chavo del 8 cifra]
© LaCuerda.net · legal notice · privacy · es · en · pt · contact us
DINAMICO