Guitar Chords » M »Música de TV » Dragon ball z - el poder nuestro es (2do opening) (Tab)

Dragon ball z - el poder nuestro es (2do opening)
Música de TV

Lyrics, Chords & Tabs for Guitar, Bass & Ukulele

  • Em           D            C
    Acercándose, el peligro viene ya
        G     D      C    D       Em
    y para llorar no es el tiempo ahora
    Em                   D             C
    y siento subir más y más la adrenalina
        G      D  C       D       Em
    los héroes de la historia seremos
    
    C       D            G         B
    Realidad tus sueños hoy... serán
    C         D         G                 Bm B  B
    listo estoy para poder pelear ¡victoria tendré!
    
    Em  D  C  D     Em          Bm
    Vuela niño, el poder, nuestro es
    Em  D C D      Bm    D    Em
    hoy seremos, Dragon Ball  Z
    
           C                 Bm
    
  •    Em            D           C
    Acercándose el peligro viene ya,
         G      D   C               Em
    Y para llorar no es el tiempo ahora,
        Em              D            C
    Siento subir mas y mas la adrenalina,
         G      D   C       D     Em   B
    Los héroes de, la historia seremos,
    
    C     D            G         B
    Realidad tu sueño por fin será,
    C        D           G
    Listo estoy, para poder pelear,
          B
    Victoria tendré.
    
    Em          D5  E5     D5    B5
    Juega niño, el poder nuestro es,
    Em            B5    D5  E5
    Hoy seremos Dragon Ball Z,
    
  • e-------------------------------------------------
    B--------------------------------(8-7--7—-7)------
    G--9-7-9-9--9--9--11-11-9--7-9v------9---9--------
    D-------------------------------------------------
    A-------------------------------------------------
    E-------------------------------------------------
    
    e----7-7-5----------------------(7-10-7-6-5-------
    B--5---------8-8-7------7-5v----------------8)----
    G---------------------7---------------------------
    D-------------------------------------------------
    A-------------------------------------------------
    E-------------------------------------------------
    
    e-------------------------------------------------
    B----5-----------------------7-5v---(8-7---7---7)-
    G--7---9-9--9--9--11-11-9--7-------------9---9----
    D-------------------------------------------------
    A-------------------------------------------------
    E-------------------------------------------------
    
    e----7-7-5----------------------------------------
    B--5--------8-8-7-------5v-
  • EL poder nuestro es
    
    Em           D            C
    Acercándose, el peligro viene ya
    mi-mi mi-mi-mi–fa#-sol-sol-fa#-re-mi
    
    
        G     D      C    D/F#    Em
    y para llorar no es el tiempo ahora
    mi-mi-si-si-la-sol-sol-fa#-re-re-mi
    
    
    Em                   D             C
    y siento subir más y más la adrenalina
    mi-mi mi-mi-mi–fa#-sol-sol-fa#-re-mi
    
    
        G      D  C       D/F#    Em
    los héroes de la historia seremos
    mi-mi-si-si-la-sol-sol-fa#-re-re-mi
    
    
    C       D            G        B
    Realidad tus sueños son..y serán
    Si-la- re-  do-si-la-   si-sol-la-si
    
    
    C         D         G                 C- B  B
    listo estoy para poder pelear ¡victoria tendré!
    Si-la-re-     do-si-la-la-si-si-   sol-sol-la-si-si
    
    
    Em  D      C  D/F#     Em          Bm
    Vue-la     ni - ño,    el poder, nuestro es
    Sol-fa#     mi-re       re-mi-mi-re-si-si
    
    
    Em  D   C    D      B5   D5   Em
    hoy se- re- mos, Dragon Ball  Z
    sol-fa#-mi-re-    si-si-re-mi-mi
    
    
           C                  D         Bm
    procura llegar,         
  • +
    ¡Colabora con nosotros!
    Envíanos tu versión de esta canción
  • Tutorial
    HD
    Como tocar "El Poder Nuestro Es" de Dragon Ball Z - Tutorial Guitarra (HD)
    16:36
  • Tutorial
    HD
    DRAGON BALL Z - EL PODER NUESTRO ES
    Como tocar... #11
    5:27

Dragon ball z - el poder nuestro es (2do opening) Lyrics
Acercándose el peligro viene ya,
Y para llorar no es el tiempo ahora,
Siento subir mas y mas la adrenalina,
Los héroes de, la historia seremos,
Realidad tu sueño por fin será,
Listo estoy, para poder pelear,
Victoria tendré.
Juega niño, el poder nuestro es,
Hoy seremos Dragon Ball Z,
Procura llegar al final
y luchar con valor,
En los campos, deja las flores crecer,
Feliz!!
Te convertirás en un gran rival,
Aventuras podrás disfrutar,
Pelea niña hoy, sin temor,
El poder, nuestro es,
Y seremos, para siempre Dragon Ball Z!!




[Dragon ball z - el poder nuestro es (2do opening) acordes][Dragon ball z - el poder nuestro es (2do opening) cifra]
© LaCuerda.net · legal notice · privacy · es · en · pt · contact us
DINAMICO