Guitar Chords » M »Música Clasica » Beethoven - Para Elisa (Tab)

Beethoven - Para Elisa
Música Clasica

Lyrics, Chords & Tabs for Guitar, Bass & Ukulele

  • Otro tab generado con el Desktop Guitarist.
    
                                        Fur Elise
                                        Beethoven
    
    |---0-------0-------0------------------|----------------------------------|
    |-------4-------4-------0---3---1------|-----------------------0----------|
    |-----------------------------------2--|-------------------2-----------1--|
    |--------------------------------------|---2-----------2-----------2------|
    |-----------------------------------0--|-------0---3----------------------|
    |--------------------------------------|-----------------------0----------|
    
    
    |-------------------------------0--|-------0-------0------------------|
    |-----------0---1------------------|---4-------4-------0---3---1------|
    |-------1--------------------------|-------------------------------2--|
    |---2---------------2-------2------|----------------------------------|
    |---------------0-------0----------|-------------------------------0--|
    |-------------------------
  • e|-----|-------------|-------------|-------------|---------0---|-------------|
    b|-5-4-|-5-4-5-0-3-1-|-------------|-0---------0-|-1---------4-|-5-4-5-0-3-1-|
    g|-----|-------------|-2---2-----2-|-----1---1---|-----2-------|-------------|
    D|-----|-------------|---2-----2---|---2---2-----|---2---2-----|-------------|
    A|-----|-------------|-0-----3-----|-0-----------|-0-----------|-------------|
    E|-----|-------------|-------------|-------------|-------------|-------------|
    
    e|-------------|-------------|-------------|-0-------1-0-|---------0---|
    b|-------------|-0-------1-0-|-------0-1-3-|-----1-------|-3---0-----3-|
    g|-2---2-----2-|-----1-------|-2---2-------|---0---0-----|---0---------|
    D|---2-----2---|---2---2-----|---2---------|-------------|-------3-----|
    A|-0-----3-----|-------------|-0-----------|-3-----------|-------------|
    E|-------------|-0-----------|-------------|-------------|-3-----------|
    
    e|-------------|-----0---0---|-0-0-0-------|-------------|-------------|
    b|-1-------3-1-|-0-----------|-------------|---4-5-4-5-4-|-5-4-5-0-3-1-|
    g|-----2-------|-------------|-------------|-------------|-------------|
    D|---2---2-----|---2---2---2-|-------1-2-1-|-2-----------|-------------|
    A|-0-----------|-------------|-------------|-------------|-------------|
    E|-------------|-0-----------|-------------|-------------|-------------|
    
  • LAS PARTES DE LAS CUERDAS 6  5  Y  4 SON EL ACOMPAÑAMIENTO
    
    E--12--11-12-11-12--7-10-8-5---------5--7-------4-7-8-|---|
    B----------------------------------5----------5-------|-5-|
    G--------------------------------5--------------------|---|
    D------------------------------7------------6---------|---|
    A----------------------------7------------7-----------|---|
    E--------------------------5------------0-------------|---|
    
    
    E-12-11-12-11-12--7-10-8-5---------5--7-------8-7-5-----|
    B--------------------------------5----------5-----------|
    G------------------------------5------------------------|
    D----------------------------7------------6-----------7-|
    A--------------------------7------------7-----------7---|
    E------------------------5------------0-----------5-----|
    
    E-12-11-12-11-12--7-10-8-5---------5--7-------4-7-8-|---|
    B--------------------------------5----------5-------|-5-|
    G------------------------------5--------------------|---|
    D----------------------------7------------6---------|-
  • esta cancion al ser clasica podria ser dificil de tocar
    pero esta transcripcion esta muy facil de interpretar
    escuchen atentamente la cancion(bajensela)
    
    
    Q    S S    S S S S S S    S S S S S S    S S S S S S    S S S S S S
    E||-------0---|--0---0-------|--------------|--------------|----------0---|
    B||---------4-|----4---0-3-1-|--------------|--0---------0-|--1---------4-|
    G||-----------|--------------|--2---2-----2-|------1---1---|------2-------|
    D||-----------|--------------|----2-----2---|----2---2-----|----2---2-----|
    A||-----------|--------------|--0-----3-----|--------------|--0-----------|
    E||-----------|--------------|--------------|--0-----------|--------------|
    
    
      S S S S S S    S S S S S S    S S S S S S    S S E  S S    S S S S S S
    --0---0-------|--------------|--------------|---------0---|--0---0-------|
    ----4---0-3-1-|--------------|--0-------1-0-|-----------4-|----4---0-3-1-|
    --------------|--2---2-----2-|------1-------|--2---2------|--------------|
    --------------|----2
  • +
    ¡Colabora con nosotros!
    Envíanos tu versión de esta canción






[Beethoven - Para Elisa acordes][Beethoven - Para Elisa cifra]
© LaCuerda.net · legal notice · privacy · es · en · pt · contact us
DINAMICO