Guitar Chords » M »Motel » Olvídame (Tab)

Olvídame
Motel

Lyrics, Chords & Tabs for Guitar, Bass & Ukulele

  • F - A# - F - A#
    
    Aquí empieza a cantar y la lira acústica
    lleva el mismo ritmo que la eléctrica:
    
    VERSO I:
    
    F                     Am
       La noche se disuelve
    F                Am
       Recobra su color
    F                    Am
       Las sombras desvanecerán
    F                   Am
       En sueño y en sudor
    
    PRECORO:
    
          Dm         A#             F
    Y el sol abraza lento a la ciudad
    
  •    F Maj                          A#maj7
    E-------------------------------*-------------------------------*
    B--6-6-6-6-6-5-6---6---6---6-5--*--1-1-1-1-1-1-1---1---1---1-1--*
    G--5-5-5-5-5-5-5---5---5---5-5--*--3-3-3-3-3-2-3---3---3---3-2--*
    D--3-3-3-3-3-3-3---3---3---3-3--*--3-3-3-3-3-3-3---3---3---3-3--*
    A-------------------------------*-------------------------------*
    E-------------------------------*-------------------------------*
    
    (Figura 2)
       F Maj     A Min
    E---------*---------*
    B----6----*----10---*
    G----5----*----9----*
    D----3----*----7----*
    A---------*---------*
    E---------*---------*
    
    INTRO: FIGURA 1 X2
    (PARA LOS QUE TOQUEN EN BANDAS SOBRE LA ESTROFA
    VAN TOCANDO LA FIGURA 2 Y SOBRE EL CORO LA FIGURA 1)
    
  •       F                               A#
    E*-------------------------------------------------------------*
    B*-------------------------------------------------------------*
    G*----9/10-10-10--9---10-10-10-10--9---2/3-3-3-2---3-3-3-3-2---*
    D*-------------------------------------------------------------*
    A*----7/8--8--8---7----8--8--8--8--7---0/1-1-1-0---1-1-1-1-0---*
    E*-------------------------------------------------------------*
          F                               A#
    E*-------------------------------------------------------------*
    B*-------------------------------------------------------------*
    G*----9/10-10-10--9---10-10-10-10--9---2/3-3-3-2---3-----------*
    D*-------------------------------------------------------------*
    A*----7/8--8--8---7----8--8--8--8--7---0/1-1-1-0---1-----------*
    E*-------------------------------------------------------------*
    
    F               Am
        La noche se disuelve
    E*---------*---------*
    B*----6----*----10---*
    G*----5----*----9----*
    
  • Ahi les va la rola a los brothers que me la han pedido,
    disculpen pero no habia tenido tiempo para subirla.
    Les pongo la base, arreglenla a su gusto.
    
    Intro
    
    G----------------------
    D----------------------  X 2
    A-----------11111111--
    E-11111111------------
    
    Verso (escuchen bien el ritmo, no lleva el mismo de la lira, lo tocan
               2 veces y el ultimo lo dejan sonar para cambiar de nota)
    
    G----------------------
    D---------------------- X 4
    A----------------------
    E-11---------55--------
    
    Inicio del coro
    
    G------------------------
    D------------------------ X 2
    A-555555----------------
    E--------666666-888888--
    
    Coro
    
    G---------------------
    D--------------------- X 4
    A----------11111111--
    E-11111111-----------
    
    En la parte lenta que va sin bataca son las mismas notas del coro
    
    G--------------
    D-------------- X 3
    A--1-----------
    E-1------------
  • +
    ¡Colabora con nosotros!
    Envíanos tu versión de esta canción

Olvídame Lyrics
Aquí empieza a cantar y la lira acústica
lleva el mismo ritmo que la eléctrica:
VERSO I:
La noche se disuelve
Recobra su color
Las sombras desvanecerán
En sueño y en sudor
PRECORO:
Y el sol abraza lento a la ciudad
Los autos se deslizan y se van
Y POR FAVOR OLVÍDAME
IGUAL QUE HOY, IGUAL QUE AYER
OLVÍDAME
Volvemos a encontrarnos
En un gran almacén
La noche es el contrato que
Venimos a romper
Y el DJ nos lastima una vez más
Y el maratón suicida que nos comerá
Y POR FAVOR OLVÍDAME
IGUAL QUE HOY, IGUAL QUE AYER
(parte II)
Aquí hay en realidad algo que suena como a Am
y yo les había puesto que era F, escuchen bien
el bajo y veran que hace A
Y POR FAVOR OLVÍDAME
IGUAL QUE YO TE OLVIDARÉ
OLVÍDAME
Aquí es cuando se callan y la eléctrica
hace algunos arpegios y la acústica hace
este par de acordes:
Acompañamiento del Solo
(Me parece que en verdad son estos acordes):
Y POR FAVOR OLVÍDAME
IGUAL QUE HOY, IGUAL QUE AYER
(parte II)
Y POR FAVOR OLVÍDAME
IGUAL QUE YO TE OLVIDARÉ
OLVÍDAME




[Olvídame acordes][Olvídame cifra]
© LaCuerda.net · legal notice · privacy · es · en · pt · contact us
DINAMICO