Guitar Chords » M »Mon Laferte » Tu falta de querer (Tab)

Tu falta de querer
Mon Laferte

Lyrics, Chords & Tabs for Guitar, Bass & Ukulele

  • Intro: A
    
    A
    Hoy volví a dormir en nuestra cama
           F#
    Y todo sigue igual
    El aire nuestros gatos
          D
    Nada cambiara
      Dm                  Bm       E
    Difícil olvidarte estando aquí ah...
    
       A
    Te quiero ver
                                F#
    Aun te amo y creo que hasta más que ayer
                             D
    La hiedra venenosa no te deja ver
       Dm                 Bm         E
    Me siento mutilada y tan pequeña ah...
    
  •      A
    Hoy volví a dormir en nuestra cama
         F#
    Y todo sigue igual, el aire nuestros gatos
         D
    Nada cambiará. Difícil olvidarte
            Dm E
    estando aquí
    
         A
    Te quiero ver, aun te amo
                       F#
    Y creo que hasta mas que ayer.
                       D
    La hiedra venenosa no te deja ver.
                             Dm    E
    Me siento mutilada y tan pequeña
    
    Coro:
    A              C#
    
  • Intro: A
    
    A
    Hoy volví a dormir en nuestra cama
           F#m
    Y todo sigue igual
    El aire nuestros gatos
          D
    Nada cambiara
      Dm                      E
    Difícil olvidarte estando aquí ah...
    
    
       A
    Te quiero ver
                                F#m
    Aun te amo y creo que hasta más que ayer
                             D
    La hiedra venenosa no te deja ver
       Dm                            E
    
  • E|----------------------------------|
    B|-3----------3-1-3-1-3-4-3-1-3-0---|
    G|---3------3---------------------0-|
    D|-----3--3-------------------------|
    A|----------------------------------|
    e|----------------------------------|
    
    El aire y nuestros gatos, nada cambiará
    
    E|--------------------1-----|
    B|---3-1-3-1-3-1--3-4---4-4-|
    G|-0------------------------|
    D|--------------------------|
    A|--------------------------|
    e|--------------------------|
    
    Difícil olvidarte estando aquí...í, oh oh oh
    
    E|---1---1---1-2-1--------------|
    B|-----4---4-------4-6s4--4s3s1-|
    
  • A# [-6-] D [-5-] D# [-6-] Cm [-3-] F [-1-]  G [-7-] D#m [-6-]
       [-6-]   [-7-]    [-8-]    [-4-]   [-1-]    [-8-]     [-7-]
       [-7-]   [-7-]    [-8-]    [-5-]   [-2-]    [-7-]     [-8-]
       [-8-]   [-7-]    [-8-]    [-5-]   [-3-]    [-5-]     [-8-]
       [-8-]   [-5-]    [-6-]    [-3-]   [-3-]    [-x-]     [-6-]
       [-6-]   [-x-]    [-x-]    [-x-]   [-1-]    [-x-]     [-x-]
    
    
    Cm [-8-]   F* [-8--]
       [-8-]      [-10-]
       [-8-]      [-10-]
       [-10-]     [-10-]
       [-10-]     [-8--]
       [-8-]      [-x--]
    
    
    Intro:
    
    A#-D-D#-Cm-A#--F
    
    
  • Esta versión es en Bajo de 4 Cuerdas la Original lleva 5
    
    
    Intro:
    
    G|--------------------------------------------------------------
    D|--------0--3--0-----0--3--0-----------4--7--4--------4--7--4--
    A|--1--1-----------1--------------5--5-----------5--5-----------
    E|--------------------------------------------------------------
    
    
    G|-----------------------------------------------------------
    D|--------8--------------------0--3--0-----------------------
    A|--6--6-----9--8--8-----1--1--------------------------------
    E|--------------------------------------1--1--1--1--1--1--1--
    
    
    Verso:
    (Pongo las notas para que sepan con que pueden jugar)
    
    Hoy Volvi...
    
      A#                                 G
    G|-----------------------------------------------------------------
    D|-----------------------------------------------------------------
    A|--1--1--------1-----1-----1--------------5-----5-----5-----5-----
    E|--------1--1-----1-----1-----1-----3--3-----3-----3-----3-----3--
    
    Nada Cambiara
    
       D#            
  • +
    ¡Colabora con nosotros!
    Envíanos tu versión de esta canción
  • Tutorial
    HD
    Tu Falta de Querer Mon Laferte Cómo Tocar en Guitarra
    6:09
  • Tutorial
    HD
    Mon Laferte - Tu Falta de Querer Tutorial Guitarra
    Acordes + SOLO (HD)
    13:47
  • Tutorial
    HD
    como tocar TU FALTA DE QUERER Mon Laferte, en Guitarra Tutorial
    5:02
  • Tutorial
    HD
    ¿CÓMO TOCAR Tu Falta de Querer? - Mon Laferte
    ¿Cómo Tocar ... ? #1
    3:13
  • Tutorial
    TU FALTA DE QUERER
    Mon Laferte (Tutorial BIEN EXPLICADO)
    11:29

Tu falta de querer Lyrics
Hoy volví a dormir en nuestra cama
Y todo sigue igual, el aire nuestros gatos
Nada cambiará. Difícil olvidarte
estando aquí
Te quiero ver, aun te amo
Y creo que hasta mas que ayer.
La hiedra venenosa no te deja ver.
Me siento mutilada y tan pequeña
Ven y cuéntame la verdad,
Ten piedad y dime ¿por qué?
¿Cómo fue que me dejaste de amar?
Yo no podía soportar tu tanta falta de querer
Hace un mes solía escucharte
Y ser tu cómplice, pensé que ya no había
Nadie mas que tu.
Yo fui tu amiga y fui tu compañera.
Ahora dormiré muy profundamente
para olvidar quisiera hasta la muerte
Para no pensar,me borro
Pa' quitarme esta amargura
Ven y cuéntame la verdad, ten piedad
Y dime ¿Por qué?
¿Cómo fue que me dejaste de amar?
Yo no podía soportar tu tanta falta de querer.
Termina en A/La
Esta es mi primera transcripción
y espero que les sirva y que la
disfruten tanto como yo:3




[Tu falta de querer acordes][Tu falta de querer cifra]
© LaCuerda.net · legal notice · privacy · es · en · pt · contact us
DINAMICO