Guitar Chords » M »Molotov » Gimme the Power (Tab)

Gimme the Power
Molotov

Lyrics, Chords & Tabs for Guitar, Bass & Ukulele

  • C#m                   B
    la policía te esta extorsionando dinero
    A                        G#
    pero ellos viven de lo que tu estas pagando
    C#m                       B
    y si te tratan como un delincuente ladrón
    A                     G#
    no es tu culpa dale gracias al regente 
    C#m                              B
    hay que arrancar el problema de raíz   
    A                      G#
    y cambiar al gobierno de nuestro país
    C#m                            B
    a la gente que esta en la burocracia      
    A                              G#
    esa gente que le gustan las migajas                 
    C#m                       B
    yo por eso me quejo y me quejo
    A                                    G#
    porque aquí es donde vivo y yo ya no soy un pendejo
    
  •  |  Am  |  G  |  F  |  E  |
    G|-99999-88888-66666-55555-|  [X2]
    
    Después del intro se toca el siguiente punteo durante toda la canción.
    
     |     Am    |     G     |     F     |     E     |
    B|---5---5---|---4---4---|---2---2---|---1---1---|
    G|-6---6---6-|-4---4---4-|-2---2---2-|-1---1---1-|
    
         Am                  G
     La policía te esta extorsionando (Dinero)
         F             E
     pero ellos viven de lo que tu estas pagando
       Am                     G
     si te tratan como un delincuente (Ladrón)
         F                 E
     no es tu culpa dale gracias al regente
        Am                        G
     ay que arrancar el problema de raíz (Ajá)
        F                 E
    
  • INTRO: LAm - SOL - FA - MI
    
         LAm                 SOL
     LA POLICIA TE ESTA EXTORSIONANDO,
         FA            MI
     PERO ELLOS VIVEN DE LO QUE TU ESTAS PAGANDO,
       LAm                    SOL
     SI TE TRATAN COMO UN DELINCUENTE,
         FA                MI
     NO ES TU CULPA DALE GRACIAS AL REGENTE.
        LAm                       SOL
     AY QUE ARRANCAR EL PROBLEMA DE RAIZ,
        FA                MI
     Y SACAR AL GOBIERNO DE NUESTRO PAIS,
        LAm                      SOL
     A LA GENTE QUE ESTA EN LA BUROCRACIA,
         FA             MI
     A ESA GENTE QUE LE GUSTA LA MIGAJA,
        LAm                    SOL
     YO POR ESO ME QUEJO Y ME QUEJO,
    
  •      C#m             B               A               G#
    E:---7-7-7-7-7-7-7-7-6-6-6-6-6-6-6-6-4-4-4-4-4-4-4-4-3-3-3-3-3-3-3-3
    B:---9-9-9-9-9-9-9-9-7-7-7-7-7-7-7-7-5-5-5-5-5-5-5-5-4-4-4-4-4-4-4-4
    G:------------------------------------------------------------------
    D:------------------------------------------------------------------
    A:------------------------------------------------------------------
    E:------------------------------------------------------------------
    
    
         C#m             B               A               G#
    E:----7--------7------7--------7------4--------4------3--------3----
    B:---9--------9------6--------6------5--------5------4--------4-----
    G:------------------------------------------------------------------
    D:------------------------------------------------------------------
    A:------------------------------------------------------------------
    E:------------------------------------------------------------------
    
    
    
    C#m                   B
    
  • e|-000000000000000000000------------------------------------------------|
    B|----------------------444444444444444444-222222222222222222-111111111-|
    G|----------------------------------------------------------------------|
    D|----------------------------------------------------------------------|
    A|----------------------------------------------------------------------|
    E|----------------------------------------------------------------------| X2
    
    ESTO YA VA A VELOCIDAD MASOMENOS NORMAL
    
    e|------0----0------|
    B|----2---2----2----|
    G|--1------1-----1--|
    D|------------------|
    A|------------------|
    E|------------------|
    
    e|------------------|
    B|------4-----4-----|
    G|----4---4-----4---|
    D|--4-------4-----4-|
    
  • hola de nuevo....esta cancion esta buenisima y no
    esta complicada...esta facil de tocar y de leer.
    ahi les va
    
    esto se toca desde el principio
    
    (Parte A)
    G/------------------------------------------------/
    D/-------------------------------1-2-1------------/
    A/-4-4----2-2----0-0--------4-4----------0-0------/
    E/---------------------4-4--------------------4-4-/
    
    esto se toca hasta la parte en que
    empieza 'gente que vive en la pobreza...'
    y ahi va esto
    
    (Parte B)
    G/------------------------------------------------/
    D/------------------------------------------------/
    A/-4-4----2-2----0-0------------------------------/
    E/---------------------4-4------------------------/
    
    esto se toca hasta el coro
    
    y el coro es igual a la parte A y se toca hasta
    que empieza el verso
    'Por que no nacimos donde no hay que comer'
    ahi se toca la parte B hasta el coro otra
    vez que se toca la parte A unas 6 veces.
    
    luego enseguida se toca esto que ya es el final
    
    G/------------------
  • +
    ¡Colabora con nosotros!
    Envíanos tu versión de esta canción
  • Tutorial
    HD
    Como tocar GIMME THA POWER en guitarra - Molotov [Tutorial Somos Posers]
    4:38

Gimme the Power Lyrics
LA POLICIA TE ESTA EXTORSIONANDO,
PERO ELLOS VIVEN DE LO QUE TU ESTAS PAGANDO,
SI TE TRATAN COMO UN DELINCUENTE,
NO ES TU CULPA DALE GRACIAS AL REGENTE.
AY QUE ARRANCAR EL PROBLEMA DE RAIZ,
Y SACAR AL GOBIERNO DE NUESTRO PAIS,
A LA GENTE QUE ESTA EN LA BUROCRACIA,
A ESA GENTE QUE LE GUSTA LA MIGAJA,
YO POR ESO ME QUEJO Y ME QUEJO,
POR QUE AQUÍ ES DONDE VIVO YO YA NO SOY UN PENDEJO,
QUE NO HUACHA LOS GUSTOS DEL GOBIERNO,
HAY PERSONAS QUE SE ESTAN ENRIQUECIENDO
GENTE QUE VIVE EN LA POBREZA
Y NADIE HACE NADA POR QUE A NADIE LE INTERESA
Y ESA GENTE DE ARRIBA TE DETESTA
HAY MAS GENTE QUE QUIERE QUE CAIGA EN SUS CABEZAS
Y LE DAS MAS PODER AL PODER
MAS DURO TE VAN A VENIR A COGER
POR QUE FUIMOS POTENCIA MUDIAL
SOMOS POBRES NOS MANEJAN MAL.
DAME DAME DAME TODO EL POWER
PARA QUE LE DEMOS EN LA MADRE
GIMI GIMI GIMI TODO EL PODER
POR QUE NO NACIMOS DONDE NO HAY QUE COMER
NO HAY POR QUE PREGUNTARNOS COMO LE VAMOS A HACER
SI NOS PINTAN COMO UNOS HUEVONES
NO LO SOMOS VIVA MEXICO CABRONES
QUE SE SIENTA EL PODER MEXICANO
QUE SE SIENTA TODOS JUNTOS COMO HERMANOS
POR QUE SOMOS MAS JALAMOS MÁS PAREJO
POR QUE ESTAR SIGUIENDO A UNA BOLA DE PENDEJOS
QUE NOS LLEVAN POR DONDE LES CONVIENE
Y ES NUESTRO SUDOR LO QUE LOS MANTIENE
LOS MANTIENE COMIENDO PAN CALIENTE
ESE PAN ES EL PAN DE NUESTRA GENTE.




[Gimme the Power acordes][Gimme the Power cifra]
© LaCuerda.net · legal notice · privacy · es · en · pt · contact us
DINAMICO