Guitar Chords » M »los Mojarras » Triciclo Perú (Tab)

Triciclo Perú
los Mojarras

Lyrics, Chords & Tabs for Guitar, Bass & Ukulele

  • Am F G Am  x2
    
    Am                              F
    Triciclo con zapato, un vaso de chicha, un buen reloj
      Am                                F
    Camisas, chucherías, de todo en las calles y en montón
       G                F           G               F
    Persigna la primera venta, las calles están repletas
      G                      F               Am F G Am
    Impulsa el triciclo ambulante llamado PERU
    
        Am                                  F
    Los micros están repletos, la gente se apresta a trabajar
     Am                              F
    Obreros, empleados, doctor, enfermera y hasta un capitán
        G              F         G              F
    Van mirando sus relojes, mientras el microbusero
      G              F              Am
    Impulsa estos pistones llamados PERU
    
    
  • e|------------10-12-10----------------10-12-10-------
    b|--10-10--13-----------13-10---10-13----------13----
    g|---------------------------------------------------
    
    ---------------------------------------------------
    --------10-12-13-12-10--------10-12-13-12-10-------
    --10-10----------------10--10----------------------
    
    -------------10---------------------10-------------
    -------12-13----13-12---------12-13----13-12-------
    -12-12-----------------12--12----------------------
    
    
    ------------10-12--12-12-12-12-10------------------|
    -10-10--12------------------------12---------------|
    ---------------------------------------------------|
    (x2)
    
    
    ___________________
    
  •      A5   F5   G5   C5   B5   E5*  F5*   G5*   A5*   B5*   C5*
    1|--------------------------------------------------------------|
    2|--------------------------------------------------------------|
    3|------------------5----4----9----10----12----14----16----17---|
    4|---7----3----5----5----4----9----10----12----14----16----17---|
    5|---7----3----5----3----2----7----8-----10----12----14----15---|
    6|---5----1----3------------------------------------------------|
    
    Mientras tocas el punteo del intro la otra guitarra
    toca estos acordes apagando: A5 F5 G5 A5
    
    INTRO:                                             __
        A5                                               |
    1|---------------------------------------------|     |
    2|--------13-15-17-15-13--------13-15-17-15-13-|     |
    3|--14-14----------------14--14----------------|     |
    4|---------------------------------------------|     |
    5|---------------------------------------------|     |
    6|---------------------------------------------|     |
        F5                                               |
    
  • e|------------10-12-10----------------10-12-10-------
    b|--10-10--13-----------13-10---10-13----------13----
    g|---------------------------------------------------
    
    ---------------------------------------------------
    --------10-12-13-12-10--------10-12-13-12-10-------
    --10-10----------------10--10----------------------
    
    -------------10---------------------10-------------
    -------12-13----13-12---------12-13----13-12-------
    -12-12-----------------12--12----------------------
    
    
    ------------10-12--12-12-12-12-10------------------|
    -10-10--12------------------------12---------------|
    ---------------------------------------------------|  (x2)
    
         Am                          F
    Triciclo con zapato un vaso de chicha un buen reloj
          Am                             F
    
  •      A5   F5   G5   C5   B5   E5*  F5*   G5*   A5*   B5*   C5*
    1|--------------------------------------------------------------
    2|--------------------------------------------------------------
    3|------------------5----4----9----10----12----14----16----17---
    4|---7----3----5----5----4----9----10----12----14----16----17---
    5|---7----3----5----3----2----7----8-----10----12----14----15---
    6|---5----1----3------------------------------------------------
    
    Mientras tokas el punteo del intro la otra guitarra
    toka stos akordes apagando: A5 F5 G5 A5
    
    INTRO:                                             __
        A5                                               |
    1|---------------------------------------------|     |
    2|--------13-15-17-15-13--------13-15-17-15-13-|     |
    3|--14-14----------------14--14----------------|     |
    4|---------------------------------------------|     |
    5|---------------------------------------------|     |
    6|---------------------------------------------|     |
        F5                                               |
    
  • Bueno acá esta la tablatura original de mojarras me la pase casi toda la
    noche sacándola porque me gusta esta canción y la toco con una banda de
    profesores rockeros lmL
    
    Yo se que falta uno u otro pequeño adorno pero yo se que ustedes pueden
    meterlo lo suyo solo es cuestión de estudiarlo es por eso que lo hice
    extenso no lo reduce así que creo que un buen bajista sabrá estudiarlo.
    
    Cualquiera sugerencia o algo que quieran añadirme o creen que esta mal
    algo escríbanme yo sabré responderles.
    
    Si quieren que saque una u otra canción escríbanme con gusto lo hare…
    dejen su comentario y póngame del 1 al 10 que tal esta la tablatura
    
    ojo:
    soy nuevo y no conozco a nadie si quieren un amigo eh aquí yo :C
    
    INTRO.
    
    ----------------------------|
    ----------------------------|
    ----------------------------|
    ----55------11-----33----55-|
    
    ---------------------------------------------------------------------|
    -------------------3-33-3-23-3-33-3-35-55-5-35-55-5-57-77-7-57-77-7--|
    --------
  • +
    ¡Colabora con nosotros!
    Envíanos tu versión de esta canción
  • Tutorial
    HD
    Triciclo Perú - LOS MOJARRAS (tutorial)
    3:36
  • Tutorial
    Acordes - Triciclo Perú - Los Mojarras
    10:08

Triciclo Perú Lyrics
Triciclo con zapato, un vaso de chicha, un buen reloj
Camisas, chucherías, de todo en las calles y en montón
Persigna la primera venta, las calles están repletas
Impulsa el triciclo ambulante llamado PERU
Los micros están repletos, la gente se apresta a trabajar
Obreros, empleados, doctor, enfermera y hasta un capitán
Van mirando sus relojes, mientras el microbusero
Impulsa estos pistones llamados PERU
Todos a la cima, todos quieren llegar
No importa el camino, todos van a llegar a la cima, felicidad
El pobre a ser rico, el rico a ser rey,
El rey a la gloria, la gloria inmortal resurrección, vuelve a empezar
Muchos zapatos vamos a gastar para llegar
Alma para conquistarte, corazón para quererte
y vida para vivirla junto a ti
Alma para conquistarte, corazón para quererte
y vida para vivirla junto a ti
Todos a la cima, todos quieren llegar
No importa el camino, todos van a llegar a la cima, felicidad
El pobre a ser rico, el rico a ser rey,
El rey a la gloria, la gloria inmortal resurrección, vuelve a empezar
Muchos zapatos vamos a gastar para llegar




[Triciclo Perú acordes][Triciclo Perú cifra]
© LaCuerda.net · legal notice · privacy · es · en · pt · contact us
DINAMICO