Guitar Chords » M »Mocedades » Quien te cantará (Tab)

Quien te cantará
Mocedades

Lyrics, Chords & Tabs for Guitar, Bass & Ukulele

  •   Am         Fmaj7
    Ayer pense decirte adiós
      G              Em   Fmaj7
    y me faltó el valor
                         Bb dis
    y es que había en tus ojos
            E-Em
    tanto amor.
    
         Am       Fmaj7
    Que fácil es decirte adios
         G         Em   Fmaj7
    que fácil olvidar
                  Bb dis
    que díficil será
              E aum-E
    para los dos.
    
    
                    Am Fmaj7
    
  •   Am    Am7         Fmaj7
    Ayer pense decirte adios
      G              Em   Fmaj7
    y me falto el valor
                         A#
    y es que habia en tus ojos
            E* - E
    tanto amor.
     Am       Am7         Fmaj7
    Que facil es decirte adios
         G         Em   Fmaj7
    que facil olvidar
                  A#
    que dificil sera
              E* - E
    para los dos.
                  Am   Am7  Fmaj7
    Quien te cantara
                G      E7
    con esta guitarra
    
  •   Em                     Am
    Ayer pensé en decirte adiós,
       D                G
    y me faltó el valor,
     Am                                B7
    es que había en tus ojos tanto amor.
     Em                 Am
    Que fácil es decir adiós,
        D            G
    que fácil olvidar,
        Am                       B7 Pausa
    que difícil será para los dos.
    
    CORO:
    
                  Em
    Quién te cantará,
                 D
    con esta guitarra,
                     Em
    
  • E------3-33-1-11-3-33------1-11-1-11------0
    A-0-00----------------3-33-----------1-11--
    D------------------------------------------
    G------------------------------------------
    
    E------3-33-1-11-3-33------2-1-11-1-11------0
    A-0-00----------------1-11-------------1-11--
    D--------------------------------------------
    G--------------------------------------------
    
    Coro
    E-0---33-1-1-0--0---33-1-1-0--0------
    A---00------------00-----------------
    D--------------------------------0-00
    G------------------------------------   (X2)
    
    E-3-33------3-33-1-11-0-00-0-00---33-1
    A------3-33---------------------00----
    D-------------------------------------
    G-------------------------------------
    
    E-0-00-0-00-----------3-33-3-33-1-11-----
    A-----------3-33---------------------2-22
    D----------------0-00--------------------
    G----------------------------------------
    
    E-0-00-0-00-----------3-33-4-3-33-1-11-----
    A-----------3-33---------------------2-22--
    D----------------0-00----------------------
    G--------------
  • +
    ¡Colabora con nosotros!
    Envíanos tu versión de esta canción

Quien te cantará Lyrics
Ayer pense decirte adios
y me falto el valor
y es que habia en tus ojos
tanto amor.
Que facil es decirte adios
que facil olvidar
que dificil sera
para los dos.
Quien te cantara
con esta guitarra
quien la hara sonar
cuando no este yo.
Quien dara a tu casa color
y a tu lecho calor
quien te hara el amor.
Quien te cantara...
Quien tachara mi direccion
de tu libreta azul
archivando mi historia
en un cajon.
Y tu que haras, a donde iras
tal vez me olvidaras
y pondras mi guitarra
en un rincon.
Quien te cantara...
EADGBe




[Quien te cantará acordes][Quien te cantará cifra]
© LaCuerda.net · legal notice · privacy · es · en · pt · contact us
DINAMICO