Guitar Chords » M »Los Mirlos » La misma vaina (Tab)

La misma vaina
Los Mirlos

Lyrics, Chords & Tabs for Guitar, Bass & Ukulele

  • 1|-----9-9-9----7---------------7--10-10-10---9h10p9-----|
    2|--10------------9---------------------------------10---|
    3|-------------------------------------------------------|
    4|-------------------------------------------------------|
    5|-------------------------------------------------------|
    6|-------------------------------------------------------|
    
    
    1|-----9-9-9---7h9p7---------7-10-10-10---9h10p9---------|
    2|--10---------------9---------------------------10------|
    3|-------------------------------------------------------|
    4|-------------------------------------------------------|
    5|-------------------------------------------------------|
    6|-------------------------------------------------------|
    
    
    1|--9------------7-----------7-10-10-10---9h10p9---------|
    2|----10-7-----9----------------------------------10-----|
    3|-----------9-------------------------------------------|
    4|-------------------------------------------------------|
    
  • +
    ¡Colabora con nosotros!
    Envíanos tu versión de esta canción

La misma vaina Lyrics
Empieza a cantar - Al fondo (Con efecto Wha-Wha)
Repetir Todo.
Si alguien la corrige, encantado de aceptar crítica.
Saludos
Lualanmi




[La misma vaina acordes][La misma vaina cifra]
© LaCuerda.net · legal notice · privacy · es · en · pt · contact us
DINAMICO