Guitar Chords » M »Mikel Erentxun » A un minuto de tí (Tab)

A un minuto de tí
Mikel Erentxun

Lyrics, Chords & Tabs for Guitar, Bass & Ukulele

  • G-F-Am-G (2 VECES)
    
                            F
    Antes de tres lunas volvere a por ti
    Am                       G
      Antes que me eches de menos
                            F
    Dejaste vias muertas tendidas al pasar
    Am                      G
      Nunca te he esperado tanto
    
            F         C        G         Em
    A un minuto de ti,  voy detras de ti
            F         C         G
    A un minuto de ti,  te seguire
    
                             F
    El viento se ha calzado sus guantes de piel
    Am                      G
      Se entretiene con mi pelo
    
  • G-Fmaj7-Am-D-C-Em
    
    G                   Fmaj7
    Antes de tres lunas volvere a por ti
    Am                       G
      Antes que me eches de menos
    G                      Fmaj7
    Dejaste vias muertas tendidas al pasar
    Am                      G
      Nunca te he esperado tanto
    
          Fmaj7       C        G         Em
    A un minuto de ti,  voy detras de ti
          Fmaj7       C         G
    A un minuto de ti,  te seguire
    
    G                       Fmaj7
    El viento se ha calzado sus guantes de piel
    Am                      G
      Se entretiene con mi pelo
    
  • Am 
    
    G F Am  G F Am G
    
    G                        F
    ANTES DE TRES LUNAS VOLVERIA POR TI
    Am    Am7                  G
    ANTES QUE ME HECHES DE MENOS
    G                      F
    DEJASTE VIAS MUERTAS HUNDIDAS AL PASAR
    Am     Am7            G
    NUNCA TE ESPERADO TANTO
    
           F        C        G     Em
    AUN MINUTO DE TI VOY DETRAS DE TI 
           F        C        G     
    AUN MINUTO DE TI TE SEGUIRE
    
    G                     F
    EL VIENTO SE ACAVADO SUS GUANTES DE PIEL
    
  •                                   Am
     e ---------0------------------0--0---
     b -----1-0---0-1-0--------1-0----1---
     g ---2-------------2----2--------2---
     D -------------------------------2---
     A -0------------------0----------0---
     E -------------------------------0---
    
     Acordes:(G F Am G)x2
    
     e -7h5-7h5-----------------------------------
     b ---------88-8-8*10-----8-------------------
     g -------------------7*9---9-7----7-9--------
     D -----------------------------10-----10-----
     A -------------------------------------------
     E -------------------------------------------
    
     e--------------------------------------------
     b--------------------------------------------
     g--------------------------------------------
    
  •             G
     e|-----------|
     b|-----------|
     g|-----------|
     D|-----5---5-|
     A|-5/7---7---|
     E|-----------|
    
    Intro:
    e|------0--------|---------0-|
    B|----0---0--0---|----0----0-|
    G|---5------5----|---5-----5-|
    D|--7----------7-|--7---7--7-|
    A|-0-------------|-0-------0-|
    E|---------------|-----------|
    
        G                       F                  Am
     e|-10--10----------------|-----------------------|
     b|-10b-10b-10-8---8-8h10-|----8------------------|
     g|--------------9--------|-7h9--9--7----7h9-7----|
    
  • +
    ¡Colabora con nosotros!
    Envíanos tu versión de esta canción
  • Tutorial
    HD
    A Un Minuto De Tí - Mikel Erentxun: SOLO GUITARRA TAB #2
    0:29

A un minuto de tí Lyrics
Antes de tres lunas volvere a por ti
Antes que me eches de menos
Dejaste vias muertas tendidas al pasar
Nunca te he esperado tanto
A un minuto de ti, voy detras de ti
A un minuto de ti, te seguire
El viento se ha calzado sus guantes de piel
Se entretiene con mi pelo
Bebo el agua que viene conmigo, estoy
estancado en tu reflejo
Solamente de ti, gota a gota
Solamente de ti, veneno y sed
Llegare solo hasta el umbral
Nanana que puedo perder
Me atrevere cuento un paso mas
Nanana no soy como tu
A un minuto de ti, voy detras de ti
A un minuto de ti, te seguire
Voy a arder, braceo en espiral
Nanana me vuelvo a repetir
Saltare planeo en derredor
Nanana no soy como tu
Llegare solo hasta el umbral
Nanana que puedo perder
Me atrevere cuento un paso mas
Nanana no soy como tu
Dudas a: leandronoguez@gmail.com




[A un minuto de tí acordes][A un minuto de tí cifra]
© LaCuerda.net · legal notice · privacy · es · en · pt · contact us
DINAMICO