Guitar Chords » M »Mercedes Sosa » Canción de las simples cosas (Tab)

Canción de las simples cosas
Mercedes Sosa

Lyrics, Chords & Tabs for Guitar, Bass & Ukulele

  •           Am7
    Uno se desvive
    
    insensiblemente
                 F
    de pequeñas cosas
                    G
    lo mismo que un árbol
    
    que en tiempo de otoño
                 Cmaj7
    se queda sin hojas
                   F               E7
    al fin la tristeza es la muerte lenta
                   Am7
    de las simples cosas
                F
    esas cosas simples
                 B7
    que quedan doliendo
    
  • Bm
    Uno se despide
              Bm/A
    insensiblemente
                 G7    Em
    de pequeñas cosas
                     A
    lo mismo que un árbol
     G/B               A/C#
    que en tiempo de otoño
                    D    Am7    D7
    muere por sus hojas...
    
     G
    Al fin la tristeza
                    Em
    es la muerte lenta
                   Bm    Bm/A
    de las simples cosas,
                  G7
    
  • 1|--13-15-13-12----12---------------------------------
    2|--------------15----15-13-12-13-12-10----10---------
    3|--------------------------------------12----12-10-9-
    4|----------------------------------------------------
    5|----------------------------------------------------
    6|----------------------------------------------------
    
    1|-------------------------------------------------7---10---12---
    2|---------------------------------------------9-----9----9------
    3|-9h10-9h10-9h10-9h10-9h10-9h10-9h10-9h10---9---9---------------
    4|---------------------------------------------------------------
    5|---------------------------------------------------------------
    6|-8-------------------7-------------------0---------------------
    
    Arreglo de estribillo
    
    "...Donde encontraras,con el pan al sol, la mesa tendida"
    1|-8------7-----5---4-----4-----4---7-----8-----7----5-----5----5-----
    2|---10-----6-----4---3-----3-----3---6-----6-----6----5-----5----5---
    3|------9-----7---------4-----4---------7-----7----------5-----5------
    
  • +
    ¡Colabora con nosotros!
    Envíanos tu versión de esta canción

Canción de las simples cosas Lyrics
Uno se despide
insensiblemente
de pequeñas cosas
lo mismo que un árbol
que en tiempo de otoño
muere por sus hojas...
Al fin la tristeza
es la muerte lenta
de las simples cosas,
esas cosas simples
que quedan doliendo
En el corazón...
Uno vuelve siempre, a lo viejos sitios
en que amó la vida, y entonces comprende
como están de ausentes, las cosas queridas...
Por eso muchacha
no partas ahora
soñando el regreso,
que el amor es simple
y a las cosas simples
las devora el tiempo.
Demórate aquí
en la luz mayor
de este mediodía,
donde encontrarás
con el pan al sol
la mesa tendida...
Por eso muchacha
no partas ahora
soñando el regreso,
que el amor es simple
y a las cosas simples
las devora el tiempo.
-FIN-




[Canción de las simples cosas acordes][Canción de las simples cosas cifra]
© LaCuerda.net · legal notice · privacy · es · en · pt · contact us
DINAMICO