Guitar Chords » M »Memphis La Blusera » la ultima lagrima (Tab)

la ultima lagrima
Memphis La Blusera

Lyrics, Chords & Tabs for Guitar, Bass & Ukulele

  • INTRO:  C  Cm  Bm  E7  Am7  D7  G  D7
    
    G                                    B7
    De un sueño profundo respuestas de hoy,
    Em                        Dm                      G7
    la ultima lagrima por tu cara rodo.
    C                Cm      Bm         A#7
    Lo que no fue ya nunca sera,
    A                               D7
    cierra tus heridas deja de llorar.
    
    G                   B7
    Abre tus ojos que ya sale el sol,
    Em               Dm                          G7
    abre tu alma que llega el amor.
    C                           Cm       Bm            A#7
    De un dia cualquiera en algun lugar,
                   A         D7         G  G7
    tendras otra oportunidad.
    
    
  • Intro: C7 - C#dim - Bm7 - E7 - Am7 - D7 - G7 - D7
    
    Verso 1:
           G           G        B7            B7
    De un sueño profundo    despertaste hoy
       Em7          Ebdim    Dm7      G7
    La ultima lagrima por tu cara rodo
    C7          C#dim      Bm7   Bb7
    Lo que no fue ya nunca sera
         Am7          A7   D7
    Cierra tus heridas deja de llorar
    
    Verso2:
       G        G      B7         B7
    Abre tus ojos que ya sale el sol
    Em7       Ebdim    Dm7      G7
    Abre tu alma que llega el amor
       C7          C#dim     Bm7   E
    Un dia cualquiera en algun lugar
            A7     D7      G     G7
    
  • LA ultima lagrima
    
    Bueno me falta el solo, pense que lo tenia escrito pero
    parece que no, mas adelante lo subo.
    Aquí les paso los acordes exactos:
    
        C7   C#dim   Bm7        E7    Am7   D7         G7   B7    Em
    E||--3-----------2--------|--------5----5--------|--3----7----7------|
    B||--5----5------3--------|--5-----5----7--------|--3----7----8------|
    G||--3----3------2--------|--7-----5----5--------|--4----8----7------|
    D||--5----5------4--------|--6-----5----7--------|--3----7----9------|
    A||--3----4------2--------|--7-----7----5--------|--5----9----7------|
    E||-----------------------|--------5-------------|--3----7-----------|
    
    
     Ebdim  Bb7   A7
    --8-----1----5--------||
    --7-----3----5--------||
    --8-----1----6--------||
    --x-----3----5--------||
    
  • e|---------------------------------------------------------------------------|
    B|-----8-10---8-----8-10b12-10b12-10b12-10b13-10b13r10-----------------------|
    G|-3/9------9---7/9------------------------------------9~~-------------------|
    D|---------------------------------------------------------------------------|
    A|---------------------------------------------------------------------------|
    E|---------------------------------------------------------------------------|
    
    e|-12b14-10-9-8-7-7-8-7-7-8-7---8-7------------------------------------------|
    B|----------------------------8-----8-8~~6-----------------------------------|
    G|-----------------------------------------7-5-7-7~~-------------------------|
    D|---------------------------------------------------------------------------|
    A|---------------------------------------------------------------------------|
    E|---------------------------------------------------------------------------|
    
    
    [Solo]
    
    e|---------------------------------------------------------------------------|
    B|-10/12-10/12~-12-12-12-10-7-----------15b17-15-13-15-----------------------|
    G|----------------------------8------------------------14b15r14-12----12-----|
    
  • +
    ¡Colabora con nosotros!
    Envíanos tu versión de esta canción
  • Tutorial
    HD
    La última lagrima - Memphis - Guitarra
    3:47
  • Tutorial
    Como tocar los acordes de la canción: "La última lágrima" Memphis
    6:17
  • Tutorial
    HD
    EXPLICADO - Como tocar "La ultima lagrima" de Memphis la blusera en el bajo tutorial#63
    16:55

la ultima lagrima Lyrics
De un sueño profundo respuestas de hoy,
la ultima lagrima por tu cara rodo.
Lo que no fue ya nunca sera,
cierra tus heridas deja de llorar.
Abre tus ojos que ya sale el sol,
abre tu alma que llega el amor.
De un dia cualquiera en algun lugar,
tendras otra oportunidad.
La gloria fue el beso de una falsa mujer,
quedaste en off-side y empezaste a perder.
Y los amigos que la fama te dio,
todo todo todo desaparecio.
Muy lentamente se desenredo,
la telaraña de tu cancion.
No se si fue magia canto de caracol,
algo nuevo para tu corazon.
La gloria fue el beso de una falsa mujer,
quedaste en off-side y empezaste a perder.
Y los amigos que la fama te dio,
todo todo todo desaparecio.
Abre tus ojos que ya sale el sol,
abre tu alma que llega el amor.
De un dia cualquiera en algun lugar,
tendras otra oportunidad.
tendras otra oportunidad.
tendras otra oportunidad.




[la ultima lagrima acordes][la ultima lagrima cifra]
© LaCuerda.net · legal notice · privacy · es · en · pt · contact us
DINAMICO