Guitar Chords » M »Medina Azahara » Todo tiene su fin (Tab)

Todo tiene su fin
Medina Azahara

Lyrics, Chords & Tabs for Guitar, Bass & Ukulele

  • Bm                       A
    Siento que ya llega la hora
                        G
    que dentro de un momento
                    F#7
    te alejarás al fin.
    
    (ASÍ SIGUE EL RESTO).
    
    Quiero que tus ojos me miren
    y que siempre recuerdes
    el amor que te dí.
    
    Pero quisiera que ese dia
    al recordar comprendas 
    lo que has hecho de mí.
    
    Sólo me queda la esperanza
    que como el viento al humo 
    te apartes ya de aquí.
    
  •    Bm               A              G          F#7   
        
    E--------------------------------------------------
    B-11-11-9----9-11-7-9-9-7----7-9-5-7-7---7-5-3/2---
    G---------11--------------10-----------7-----------
    D--------------------------------------------------
    A--------------------------------------------------
    E--------------------------------------------------
    
    GUITARRA 01.Con distorsion pero un poko melodica es 
    decir tocar los agudos tb.
    
    Bm                       A
    Siento que ya llega la hora
                        G
    que dentro de un momento
                    F#7
    te alejarás al fin.
    
    Quiero que tus ojos me miren
    
  • LA intro
    
    B(x)= Bending (aqui habra un numero que sera el traste que has de conseguir)
    H= Hammer-On
    P= Pull-Off
    S= Slide
    \= Palm Mute
    ~= Vibrato
    
    La cancion comienza con el teclado, y las notas son:
    
    RE - DO - SI - DO
    
    A continuacion viene la guitarra:
    |---------------------------------------------------|
    |---------------------------------------------------|
    |-2S11~--9-11-12~--11-9-----------------------------|
    |-----------------------9-11-12~--12-11-------------|
    |---------------------------------------9--9H10P9-9-|
    |---------------------------------------------------|
    
  • Esta tablatura la he sacado de un vídeo de una
    actuación en un programa de televisión (disco MEDINA AZAHARA,
    25 AÑOS) en la cual se ve perfectamente a Paco Ventura tocando
    el solo inicial, por eso no creo que tenga errores.
    
    Se trata de la versión de estudio, que difiere un poco de
    la del directo. Si alguien quiere la canción me podeis enviar
    un e-mail para que os la mande.
    
    Es la primera tablatura que saco. Espero que os guste.
    
    e----------------------------------16-18-19~~--19--18-----------|
    B----16~~~~--14-16-17~--16-14-14~----------------------16~~~~---|
    G---------------------------------------------------------------|
    D---------------------------------------------------------------|
    A---------------------------------------------------------------|
    E---------------------------------------------------------------|
    
    e-------------------------------------16-18-19~~--21~~~-21^-----||
    B----19^--19-17-16-17-19-19~--21-19~----------------------------||
    G----------------------------
  • +
    ¡Colabora con nosotros!
    Envíanos tu versión de esta canción

Todo tiene su fin Lyrics
Siento que ya llega la hora
que dentro de un momento
te alejarás al fin.
(ASÍ SIGUE EL RESTO).
Quiero que tus ojos me miren
y que siempre recuerdes
el amor que te dí.
Pero quisiera que ese dia
al recordar comprendas
lo que has hecho de mí.
Sólo me queda la esperanza
que como el viento al humo
te apartes ya de aquí.
Juro quererme y no comprendo,
porque no ha sido así.
Todo da igual, ya nada importa
todo tiene su fin.
Quiero que tus ojos me miren........
*******************************************************
Esta canción la saqué con estos cuatro acordes,
pero si alguién tiene otra sugerencia,
favor de escribirme.




[Todo tiene su fin acordes][Todo tiene su fin cifra]
© LaCuerda.net · legal notice · privacy · es · en · pt · contact us
DINAMICO