Guitar Chords » M »Mecano » Hijo de la Luna (Tab)

Hijo de la Luna
Mecano

Lyrics, Chords & Tabs for Guitar, Bass & Ukulele

  • Dm                   Gm   Dm  Gm 
     Tonto el que no entienda
    Dm            Gm  Dm Gm        
     cuenta la leyenda
    F                  A7
     que una hembra gitana 
    Dm             C  
     conjuro a la Luna
      Bb      A7   Dm Gm
     hasta el amancer.
    
    
    F            A7   
     Llorando pedia
    Dm                 C
     que al llegar el dia
      Bb   A7       Dm Gm Dm Gm
     desposar un Cale.
    
    
    
  • INTRO:  DO#m FA#m DO#m FA#m DO#m DOdimm LA SOL#     
    
    VOZ 1:        DO#m             FA#m   DO#m  DOdimm
                 TONTO EL QUE NO ENTIENDA
                  DO#m       FA#m         DO#m  DOdimm                     
                 CUENTA LA LEYENDA
                    MI              SOL#7                 
                  QUE UNA HEMBRA GITANA 
      DO#m       DOdim     LA    SOL#7   DO#m    DOdimm
    CONJURO  A LA  LUNA   HASTA EL AMANECER
      MI      SOL#7   DO#m    DOdimm   LA   SOL#7    DO#m  
    LLORANDO PEDIA  QUE AL LLEGAR EL DIA  DESPOSAR UN CALE
    
    INTRO
    
    VOZ 2:  TENDRAS A TU HOMBRE   PIEL MORENA                            
            DESDE EL CIELO HABLO LA LUNA LLENA
    PERO A CAMBIO QUIERO  EL HIJO PRIMERO QUE LE ENGENDRES A EL
            QUE QUIEN SU HIJO INMOLA PARA NO ESTAR SOLA 
            POCO  LE  IBA A QUERER    DO#m  FA#m  DO#m RE#7  
    
  • Dm C Bb C ………
    
    Dm            C   Bb  C
     Tonto el que no entienda
    Dm            C  Bb C
     cuenta la leyenda
    F                  A7
     que una hembra gitana
    Dm             C
     conjuro a la Luna
      Bb      A7   Dm C
     hasta el amancer.
    
    F            A7
     Llorando pedia
    Dm                 C
     que al llegar el dia
      Bb   A7       Dm C Bb C
     desposar un Cale.
    
    
  •    C#m                           G#m   A     G#m
    
    E|---4-----------------------4---------------------|
    B|-----7---4-----5-7---4-------7---4-----5-7---4---|
    G|-----------6-----------6---6-----4-6---6-----4-6-|
    D|---6-----6-----6-----6---------6-----7-----6-----|
    A|-4-----4-----4-----4-----4-----------------------|
    E|-------------------------------------------------|
    
    [2] Se repite dos veces mientras se canta el principio de la estrofa:
       C#m               Cdim
    
    E|---4-----------4-5---4-2-|
    B|-----7---4-----5-----4---|
    G|-----------6-------------|
    D|---6-----6---------------|
    A|-4-----4-----4-----3-----|
    E|-------------------------|
    
    
    
  • Hola que tal a todos colaboradores de la cuerda excelente web.
    Aqui les mando otra tablatura hace mucho que no hacia una, espero
    que el sonido sea de su agrado.
    Esta canción fue un exito de mecano y se la quiero dedicar,
    a una amiga de la secundaria Monica Olvera Campos. Que espero
    se encuentre excelentemente bien.
    
    
    ---------0-4-----------------|
    -----2-4-----4----2----------|
    -----------------------------|
    -----------------------------|
    -----------------------------|
    -----------------------------|
    
    
    ---------0-4-------------------|-----0-2-4-9------------------4---------|
    -----2-4-----4----2------------|-------------9--7-----4-5---4----2------|
    -------------------------------|------------------------6---------------|
    -------------------------------|----------------------------------------|
    -------------------------------|----------------------------------------|
    -------------------------------|----------------------------------------|
    
    -----------0------------------------|
    ---------
  • +
    ¡Colabora con nosotros!
    Envíanos tu versión de esta canción
  • Tutorial
    HD
    Hijo de la luna Mecano Cómo Tocarla En Guitarra
    9:58

Hijo de la Luna Lyrics
Tonto el que no entienda
cuenta la leyenda
que una hembra gitana
conjuro a la Luna
hasta el amancer.
Llorando pedia
que al llegar el dia
desposar un Cale.
Tendras a tu hombre piel morena
desde el cielo hablo la Luna llena
pero a cambio quiero
el hijo primero
que le engendres a el.
Que quien su hijo inmola
para no estar sola
poco le iba a querer.
Luna quieres ser madre
y no encuentras querer
que te haga mujer.
Dime Luna de plata
que pretendes hacer
con un ni~o de piel.
Ah-ah-ah-ah
Ah-ah-ah-ah
Hijo de la Luna.
De padre canela nacio un ni~o
blanco como el lomo de un armi~o.
Con los ojos grises
en vez de aceituna
ni~o albino de Luna.
Maldita su estampa
este hijo es un payo
y yo no me lo callo.
Luna quieres ser madre...
Gitano al creerse deshonrado
se fue a su mujer cuchillo en mano
de quien es el hijo
me has enga~ao fijo
y de muerte la hirio.
Luego se hizo al monte
con el ni~o en brazos
y ahi le abandono.
Luna quieres ser madre...
Y en las noches que haga Luna llena
sera porque el ni~o este de buenas
Y si el ni~o llora
menguara la Luna
para hacerle una cuna.
Y si el ni~o llora
menguara la Luna
para hacerle una cuna.




[Hijo de la Luna acordes][Hijo de la Luna cifra]
© LaCuerda.net · legal notice · privacy · es · en · pt · contact us
DINAMICO