Guitar Chords » M »Marilina Bertoldi » Remis (Tab)

Remis
Marilina Bertoldi

Lyrics, Chords & Tabs for Guitar, Bass & Ukulele

  • A             Amaj7
    Cae la duda sobre mí
    Bm              Bm7
    Quiero confesar quién soy
    A             Amaj7
    Es que este mundo entre tú y yo
    
    Nos puede provocar dolor
    
    A             Amaj7
    Cae la sombra sobre ti
    
    Y nada más tiene valor
    A             Amaj7
    Quiero destruir quien soy
    
    Y refugiarme en tu amor
    
    Bm        G
    Uh, ya sabrás
    
  •    A         A  Amaj7         Bm7       Bm7  F#m
    |--x---------x----x------------x---------x----x---------|
    |--2~~-------2----2~~2---------3~~-------3----2-2-------|
    |--2~~-------2----1~~-1--------2~~-------2----2--2------|
    |--2~~-------2----2~~--2-------0~~-------0----0---0-----|
    |--0~~-------0----0~~----------2~~-------2----x---------|
    |--x---------x----x------------x---------x----2---------|
    
    
      Em7       Em7   G           Bm7       Bm7   A
    |--x---------x----x------------x---------x----x---------|
    |--3~~-------3----3~~----------2p3-------3----2---------|
    |--0~~-------0----0~~----------2---------2----2---------|
    |--2~~-------2----0~~----------2p4-------4----2---------|
    |--2~~-------2----x------------2---------2----0---------|
    |--x---------x----3~~----------x---------x----x---------|
    
    
    A             Amaj7
    Cae la duda sobre mí
    
  • +
    ¡Colabora con nosotros!
    Envíanos tu versión de esta canción

Remis Lyrics
Cae la duda sobre mí
Quiero confesar quién soy
Es que este mundo entre tú y yo
Nos puede provocar dolor
Cae la sombra sobre ti
Y nada más tiene valor
Quiero destruir quien soy
Y refugiarme en tu amor
Uh, ya sabrás
Sabrás qué se espera
Uh, ya sabrás
Sabrás qué se espera
Uh, ya sabrás
Sabrás qué se espera
Sabrás quién te espera aquí
Aqui
Sigue igual
Cae la lluvia sobre ti
Y puedo percibir quién sos
Nada he vuelto a deshacer
Del aire que me diste vos
Quiero confesar quién soy
O nada volverá a crecer
Sin duda es lo que me das vos
Cambiará mi parecer
Uh, ya sabrás
Sabrás qué se espera
Uh,…




[Remis acordes][Remis cifra]
© LaCuerda.net · legal notice · privacy · es · en · pt · contact us
DINAMICO