Guitar Chords » M »Marea » En tu agujero (Tab)

En tu agujero
Marea

Lyrics, Chords & Tabs for Guitar, Bass & Ukulele

  • E|---------------------------------------------------------------------|
    B|---------------------------------------------------------------------|
    G|---------------------------------------------------------------------|
    D|---------------------------------------------------------------------|
    A|---------------------------------------------------------------------|
    E|-7-7-7-7-7-7-7-7--5-5-5-5-5-5-5-5--3-3-3-3-3-3-3-3--5-5-5-5-5-5-5-5--|
    
    E|---------------------------------------------------------------------|
    B|---------------------------------------------------------------------|
    G|---------------------------------------------------------------------|
    D|---------------------------------------------------------------------|
    A|---------------------------------------------------------------------|
    E|-7-7-7-7-7-7-7-7--5-5-5-5-5-5-5-5--3-3-3-3-3-3-3-3--0-0-0-0-0-0-0-0--|
    
    La intro q ya hay transcrita esta bien pero lo ace dos veces y los acordes
    son muy facilongos...
    
    Primera parte (Kutxi)
    
    Em                       D                 C
    
  • REm                          DO                     SIb
    Me importa una mierda los labios que quieras bordar
             DO                REm
    pero con la que cae donde vas
           DO                         SIb       FA
    desde que te han cerrao los tejados.
    
    REm                DO                 SIb
    Me limo las uñas no tengo ganas de trepar
            DO                      REm
    la verdad es que no hay ganas de ná
           DO                         SIb       FA
    tengo ya los nudillos cansados.
    
    REm                  DO                 SIb
    De quitar cascotes cuando me empiezo a derrumbar
       DO                   REm
    y a apilarlos para sombrear
           DO                   SIb       FA
    y a tirarme desnudo en tus brazos.
    
  • LAm                   SOL                     FA
    Me importa una mierda los labios que quieras bordar,
         SOL
    pero con la que cae...
          LAm        SOL                     FA        SOL
    ¿dónde vas desde que te han cerrado los tejados?,
    LAm                SOL                FA
    me limo las uñas, no tengo ganas de trepa
          SOL                        LAm
    la verdad es que no hay ganas de na
          SOL                FA      SOL
    tengo ya los nudillos cansados
    LAm                  SOL                 FA
    de quitar cascotes cuando me empiezo a derrumbar,
          SOL              LAm
    de apilarlos para sombrear
          SOL                  FA       SOL
    y anudarme desnudo en tus brazos,
    LAm                      SOL                      FA
    que teja en las tejas la lluvia, que a mi me da igual,
    
  • -----------------------------------------------------------
    -----------------------------------------------------------
    7--5--3--5------7--5--3------------------------------------
    7--5--3--5------7--5--3--3---------------------------------
    5--3--1--3------5--3--1--3---------------------------------
    -------------------------1---------------------------------
    
    Esta línea de arriba es la que hace la guitarra rítmica
    durante la intro junto con el punteo, después de que el
    bajo haya estado solo.
    
    ---------------------------10P8-10-------------------------
    ----8B10-8B10B8-6---6-8S10---------------------------------
    5H7---------------7----------------------------------------
    -----------------------------------------------------------
    -----------------------------------------------------------
    -----------------------------------------------------------
    
    8P5---5H6-5H6P5---5------------------------8-10-8-10-8H10--
    ----8-----------8---8-6-----------6H8-8S10-----------------
    
  •  No sé si estará muy claro, pero bueno allá vamos.
    
      Riff 1
    G|-------------------------------------------------------------------
    D|-------------------------------------------------------------------
    A|--5-5-5-5-5-5-5-5-3-3-3-3-3-3-3-3-1-1-1-1-1-1-1-1-3-3-3-3-3-3-3-3--
    E|-------------------------------------------------------------------
    
    G|-------------------------------------------------------------------
    D|-------------------------------------------------------------------
    A|--5-5-5-5-5-5-5-5-3-3-3-3-3-3-3-3-1-1-1-1-1-1-1-1------------------
    E|--------------------------------------------------1-1-1-1-1-1-1-1--
    
      Riff 2
    G|-------------------------------------------
    D|-------------------------------------------
    A|--5--5----0--0------------3-3-3-3-3-3-3-3--
    E|------------------3--3---------------------
    
      Riff 3
    G|-----------------------------------------------------------------------------------------------
    D|--------------------------------------------------
  • +
    ¡Colabora con nosotros!
    Envíanos tu versión de esta canción

En tu agujero Lyrics
La intro q ya hay transcrita esta bien pero lo ace dos veces y los acordes
son muy facilongos...
Primera parte (Kutxi)
Me importa una mierda los labios q kieras bordar
pero con la q cae donde va
Desde que te han cerrao los tejados
Me limo las uñas no tengo ganas de trepar
la verdad es q ni ganas de na
tengo ya los nudillos cansados
de kitar cascotes cuando me empiezo a derrumbar
de apilarlos para sombrear
y anudarme desnudo en sus brazos
que tejen las tejas de lluvia q a mi m da igual
mas difícil para resbalar
mas sencillo quedarme enredado
Estribillo:
Después de pasar la noche en tu agujero
Salgo del portal y to me importa un huevo
Empiezo a escuchar... un avispero
Me vuelvo contigo lo veo a colores
Mi lapiz entiende de sucios sabores
y una sabana chorreando le ha dao por pintar
y de puertas pa fuera se hará todo añicos
pa cuando se entere yo soy tu abanico
que me hice con varas de al aire pa no molestar
Se repite la intro.
Ahora cuando canta Robe es lo mismito q en la
primera parte donde canta kutxi:
Segunda parte (Robe)
No busques razones de piedra no vas a encontrar
mas que hiedra intentando abarcar
campos yelmos q tengo por dentro
el barro y manchitas mu secas q dan q pensar
adokines q estan por pisar
pisotones haciendo senderos
que ya tengo bastante con lo que poder fumigar
calendarios que tiran p'atras
tengo los dedos amarillentos
de buscar candela la estela que haces al pasar
de estañarme a tu enjambre y libar
con el humo de mis pensamientos
Pedazo de solo de la electrika del colibrí
Ahora de nuevo lo mismo pero más corto.
Corté la garganta del gallo que quiso cantar
alboradas para celebrar
que la noche se estaba muriendo
que si no amanezco me puedo tragar
cucharadas de la oscuridad
que tus ojos sea asi mi alimento
Bueno creo q eso es todo la verdad para ser la primera vez q hago una trancripcion...
no creo q ste tan mal. Enga aupa marea q son la puta hostia y espero q aun tengan
mucho camino por recorrer.
Dudas, preguntas y donativos a loisba2@hotmail.com




[En tu agujero acordes][En tu agujero cifra]
© LaCuerda.net · legal notice · privacy · es · en · pt · contact us
DINAMICO