Guitar Chords » M »Marco Antonio Solís » Si no te hubieras ido (Tab)

Si no te hubieras ido
Marco Antonio Solís

Lyrics, Chords & Tabs for Guitar, Bass & Ukulele

  • Am                  F          G       C   E
    Te extraño mas que nunca y no se que hacer
    Am                 F         G   C     
    despierto y te recuerdo al amanecer
    G                                    C            
    me espera otro día por vivir sin ti
    E               Am
    el espejo no miente
                   F      G
    me veo tan diferente 
                    C    E    
    me haces falta tu
    Am               F            G     C     E 
    La gente pasa y pasa siempre tan igual
    Am              F         G    C      
    el ritmo de la vida me parece mal
    G                                 C  E   Am
    era tan diferente cuando estabas tu
    F              G                     C
    si que era deferente cuando estabas tu...
    
  •                  Am                  F
    e--------------------I------------------
    B-------------1------I--0/1--0----------
    G------0---2-----2---I---------2--0-----
    D---2----------------I---------------2--
    A--------------------I------------------
    E--------------------I------------------
    
                     Am                  F
    e--------------------I------------------
    B-------------1------I--0/1--0----------
    G-------0---2-----2--I---------2--0-----
    D--0/2---------------I---------------2--
    A--------------------I------------------
    E--------------------I------------------
              Am
    e-----------------
    B-----------------
    G------0---2------
    D--0/2------------
    
  •                  Am                  F
    e-----------------0-------------------1--
    B-------------1---0-----0/1--0--------3--
    G------0---2------2------------2--0---3--
    D---2-------------2-------------------2--
    A-----------------1-------------------0--
    E-----------------0-------------------0--
    
                     Am                  F
    e-----------------0-------------------1--
    B-------------1---0-----0/1--0--------3--
    G------0---2------2------------2--0---3--
    D---2-------------2-------------------2--
    A-----------------1-------------------0--
    E-----------------0-------------------0--
                     Am
    e-----------------0
    B-------------1---0
    G------0---2------2
    D---2-------------2
    
  •                  Am                  F
    e-----------------0-------------------1--
    B-------------1---1-----1-0-----------1--
    G------0---2------2---------2-0-------2--
    D---2-------------2-------------3-----3--
    A-----------------0-------------------3--
    E-----------------0-------------------1--
    
                     Am                  F
    e-----------------0-------------------1--
    B-------------1---1-----1-0-----------1--
    G------0---2------2---------2-0-------2--
    D---2-------------2-------------3-----3--
    A-----------------0-------------------3--
    E-----------------0-------------------1--
                     Am
    e-----------------0
    B-----------------1
    G------0----------2
    D---2-------------2
    
  •             Am            F            Am
    e|------------|-------------|---|--------|
    B|------------|-------------|---|--------|
    G|---------5--|-4h5h4-------|-%-|--------|
    D|-----5--7-7-|-------7-5---|---|----5-7-|
    A|-5/7--------|----------/8-|---|-5/7----|
    E|------------|-------------|---|--------|
    
    
    Am                  F         G         C       E7
    TE EXTRAÑO MAS QUE NUNCA Y N0 SE QUE HACER
    Am                 F         G   C
    DESPIERTO Y TE RECUERDO AL AMANECER
    G                              C       E7
    ESPERA OTRO DIA POR VIVIR SIN TI
                  Am
    EL ESPEJO NO MIENTE
                  F      G
    ME VEO TAN DIFERENTE
                    C      E7
    
  • Hola soy nuevo por lo tanto esta es mi primera colaboración!!!
    Espero q les sirva...La afinación es normal...Aqui solo les doy
    la base...ustedes pongale los adornos que les agraden...
    
    Introducción
    
    G -----------------------------------------
    D -----------------------------------------
    A -----------------------------------------  x2
    E -5---5-5----5---5-5----1---1-1----1---1-1
    
    Primera Parte del Verso
    
    G -----------------------------------------
    D -----------------------------------------
    A -----------------------------------3--3-3  
    E -5---5-5----5---5-5----1---1-3---3-------
    
    G -----------------------------------------
    D -----------------------------------------
    A -3---3-7--7----------------------3---3-3-
    E -------------5--5-5--1--1-3---3--------
    
    G -----------------------------------------
    D -----------------------------------------
    A -3---3-3------------------------3---3-7-- 
    E ------------3---3-3---3---3-3------------
    
    G ------------------------------
  • +
    ¡Colabora con nosotros!
    Envíanos tu versión de esta canción
  • Tutorial
    Si No Te Hubieras Ido
    Como Tocar
    Marco Antonio Solis
    4:48

Si no te hubieras ido Lyrics
TE EXTRAÑO MAS QUE NUNCA Y N0 SE QUE HACER
DESPIERTO Y TE RECUERDO AL AMANECER
ESPERA OTRO DIA POR VIVIR SIN TI
EL ESPEJO NO MIENTE
ME VEO TAN DIFERENTE
ME HACES FALTA TU
LA GENTE PASA Y PASA SIEMPRE TAN IGUAL
EL RITMO DE LA VIDA ME PARECE MAL
ERA TAN DIFERENTE CUANDO ESTABAS TU
SI QUE ERA DIFERENTE CUANDO ESTABAS TU
NO HAY NADA MAS DIFICIL QUE VIVIR SIN TI
SUFRIENDO EN LA ESPERA DE VERTE LLEGAR
EL FRIO DE MI CUERPO PREGUNTA POR TI
Y NO SE DONDE ESTAS
SI NO TE HUBIERAS IDO SERIA TAN FELIZ...(X2)
LA GENTE PASA Y PASA SIEMPRE TAN IGUAL
EL RITMO DE LA VIDA ME PARECE MAL
ERA TAN DIFERENTE CUANDO ESTABAS TU
SI QUE ERA DIFERENTE CUANDO ESTABAS TU
NO HAY NADA MAS DIFICIL QUE VIVIR SIN TI
SUFRIENDO EN LA ESPERA DE VERTE LLEGAR
EL FRIO DE MI CUERPO PREGUNTA POR TI
Y NO SE DONDE ESTAS
SI NO TE HUBIERAS IDO SERIA TAN FELIZ...(X2)




[Si no te hubieras ido acordes][Si no te hubieras ido cifra]
© LaCuerda.net · legal notice · privacy · es · en · pt · contact us
DINAMICO