Guitar Chords » M »Marcela Gandara » Vine a adorarte (Tab)

Vine a adorarte
Marcela Gandara

Lyrics, Chords & Tabs for Guitar, Bass & Ukulele

  • Intro.- D - A - Em - G
            D  - A - G
    
    D                 A
    Tú  eres  la  luz
           Em           G
    Que brillo en las tinieblas
    D          A        G
    Abrio mis ojos pude ver
    D       A    Em           G
    Mi corazón adora tu hermosura
        D           A         G
    Esperanza de mi vida eres tú
    
    
         G     D
    // Vine adorarte
               A
    Vine a postrarme
              Bm               G
    
  • D              Asus
    Tú  eres  la  luz
             Bmsus4      G/B
    Que brillo en las tinieblas
    D           Asus       G/B
    Abrió mis ojos pude ver
    
    D       Asus   Bmsus4      G/B
    Mi corazón adora tu hermosura
    D                  Asus     G/B
    Esperanza de mi vida eres tú
    
         CORO
    
             D
    Vine adorarte
                Asus
    Vine a postrarme
                Bmsus4           G/B
    Vine   a decir que eres mi DIOS
    
  • e|-2--2-3-0--0-2-3--3-2-0---|-2--2-3-0-0-0-2---|
    B|------------------------3-|----------------3-|
    
    e|-2--2-3-0--0-2-3--3-2-0---|---0-2--2-3-0-0-0-2---|
    B|------------------------3-|-3------------------3-|
    
    
    
    
    Estribillo:
    
    e|-3-2-2-0-2-2---3-2-2-0-0-0---3-2-2-0-2-2-2-5---|
                                                       X2
    B|---------------------------------------------3-|
    
    
    
    
    Estrofa:
    
    
  • Se hace el intro, la estrofa y un coro y ahi si entra el bajo:
            Tú eres...
    E|-----------------5----------0--------3----
    A|--7-7s5-5---------------------------------
    D|------------------------------------------
    G|------------------------------------------
       Glorioso...
    E|-----------------5-------3-------3-
    A|-----5-----------------------------
    D|-----------------------------------
    G|-----------------------------------
          El mundo...
    E|-----------------5----------0--------3----
    A|--------5---------------------------------
    D|------------------------------------------
    G|------------------------------------------
       Y pobre...
    E|-----------------5-------3-------3-
    A|-----5-----------------------------
    D|-----------------------------------
    G|-----------------------------------
               Vine adorarte, vine a postrarme
    E|--3-------------------------------5-----
    A|-----------------5------55--------------
    D|----------------------------------------
    G|--------------------------------
  • +
    ¡Colabora con nosotros!
    Envíanos tu versión de esta canción
  • Tutorial
    Vine adorarte tutorial con guitarra
    8:33

Vine a adorarte Lyrics
Tú eres la luz
Que brillo en las tinieblas
Abrio mis ojos pude ver
Mi corazón adora tu hermosura
Esperanza de mi vida eres tú
// Vine adorarte
Vine a postrarme
Vine a decir que eres mi Dios
eres asombroso para mi //
Tu eres el rey
Grandemente exaltado
Glorioso por siempre Señor
El mundo que creaste humilde viviste
Y pobre te hiciste por Amor
Nunca sabré
Cuanto costo
Ver mi maldad
Sobre esa cruz
Dios les Bendiga a cada uno de ustedes,
Esta alabanza esta siendo de bendición para nuestra iglesia
y deseo de todo corazón que sea de igual manera para todos ustedes.
Dios te bendiga
Laura Rojo y sigue echándole muchas ganas a la guitarra
Tu Amigo y Novio.- Juan Carlos Trejo
Karloz007@hotmail.com




[Vine a adorarte acordes][Vine a adorarte cifra]
© LaCuerda.net · legal notice · privacy · es · en · pt · contact us
DINAMICO