Guitar Chords » M »Marcela Gandara » Alabanzas al rey (Tab)

Alabanzas al rey
Marcela Gandara

Lyrics, Chords & Tabs for Guitar, Bass & Ukulele

  •     Cm                   Gm        Cm
    Hoy vengo a ofrecerme postrada ante ti
           Fm               G
    Mi corazón puede estar ahí
            Cm            Fm
    El cielo se viste de gala
         D#7           G
    Jamás se ha visto así
          Fm                  Ab
    Y en humilde pesebre ahí en Belén
    D#7           G   Ab/G-G
    Ha nacido el rey
    
    Coro=
                Ab    Eb
    Alabanzas al Re e ey
                Bb    Cm
    Alabanzas al Re e ey
                Ab    Eb
    Alabanzas al Re e ey
    
  •         Cm                  Gm            Cm
    //Hoy vengo a ofrecerme postrada ante ti
         Fm                 G
    Mi corazón puede estar ahí
         Cm               Fm
    El cielo se viste de gala
       G#              G
    Jamás se ha visto así//
    
    Precoro 1
           Fm             G#
    Y en humilde pesebre ahí en Belén
     Cm          Bb
    Ha nacido el rey
    
    Coro
                   G#-Eb
    Alabanzas al rey
                   Bb-Cm
    Alabanzas al rey
    
  •         DOm        SOL          SOL#        RE#
    E --------------------------------------------------
    B ----3-4--------4-3----------3-4-3-----------------
    G 3/5---------3/5-----------5-------5-3-----3-------
    D --------------------------------------6-5---------
    
          DOm      SOL       SOL#
    E -------3------------------------------------------
    B -3/4-6------4-6-3-----4-3---3-4-6-3---------------
    G --------------------------5---------3-5---5-3-----
    D ----------------------------------------------3-5-
    
          DOm                    FAm
    //hoy vengo a ofrecerme postrada ante ti
           SOL#             SOL  A -3-5-6-3-
    mi corazon puede estar ahi
       DOm               FAm
    el cielo se viste de gala
      SOL#             SOL    D -5-------
    jamas se a visto asi//    A ---6-5-3-
    
  • Acá les dejo la intro de esta canción que esta bien linda y que me ha
    tocado trabajar gracias a una hermana de la iglesia que la quiere
    cantar este diciembre :-)
    
    E-|---------|---------|-------------------|
    B-|-----3-4-|-----4-3-|-----4-3-----------|
    G-|-3s5-----|-3s5-----|-3h5-----5-3-----3-|
    D-|---------|---------|-------------6-5---|
    A-|---------|---------|-------------------|
    E-|---------|---------|-------------------|
    
    E-|-------3-|---------|---------------------------------|
    B-|-3s4-6---|-3s4-6-3-|-4-3---3-4-4s6-4-----------------|
    G-|---------|---------|-----5-----------3-5-----5s3-----|
    E-|---------|---------|-----------------------------3-5-|
    A-|---------|---------|---------------------------------|
    E-|---------|---------|---------------------------------|
    
    Imagino que ya deben conocer la nomenclatura pero por si las moscas:
    
    s = slide
    h = hamer
    
    Espero les guste.
    No pongo la cancion completa porque a la hora que estoy escribiendo
    ya me esta pegando el sueño y apenas estoy 
  • +
    ¡Colabora con nosotros!
    Envíanos tu versión de esta canción

Alabanzas al rey Lyrics
Hoy vengo a ofrecerme postrada ante ti
Mi corazón puede estar ahí
El cielo se viste de gala
Jamás se ha visto así
Y en humilde pesebre ahí en Belén
Ha nacido el rey
Alabanzas al Re e ey
Alabanzas al Re e ey
Alabanzas al Re e ey
Al Rey de Israel
Emmanuel
Pastores y magos vinieron a ti
A Rendir Adoración
Ángeles Ahora Cantan
A Dios Nueva Canción
Pues al mundo ha llegado el regalo de Dios
Paz y Salvación.
Notas Guitarra:
(Capo en el Primer traste)
aki les dejo esta cancion ta bien padre;
les recomiendo lo escuchen; las notas son las originales,
las que vienen en el cancionero good Bye; Feliz Año




[Alabanzas al rey acordes][Alabanzas al rey cifra]
© LaCuerda.net · legal notice · privacy · es · en · pt · contact us
DINAMICO