Guitar Chords » M »Mano Negra » Santa maradona (Tab)

Santa maradona
Mano Negra

Lyrics, Chords & Tabs for Guitar, Bass & Ukulele

  • Bb:---------------------|
    Gb:---------------------|
    Db:---------------------|
    Ab:------------1-2-1----|
    Eb:-0-1-2--0----------2-|
    
      13 secs
    eb:----------------------------------------------------------------------------------------|
    Bb:-9bf----(9bf)\----9bf----(9bf)\---9bf-------------------------------------9bf-----------|
    Gb:-9bf----(9bf)\----9bf----(9bf)\---9bf--------------11-9-11~~~\------------9bf-----------|
    Db:---------------------------------------8-9-8--------------------8-9-8---------8-9-8-----|
    Ab:----------------------------------------------9~~----------------------9~~----------9~~-|
    Eb:----------------------------------------------------------------------------------------|
    
         
    :-----------------------------------|
    :-9bf---------------9bf-------------|
    :-9bf---------------9bf-------------|
    :-------8-9-8------------8-9-8------|
    :-------------9~~~-------------9~~~-|
    
  • el intro empieza con pura guitarra y al comenzar a cantar futbol futbol va esta figura
    
    g---------------------------------------------------------------
    d---------------------------------------------------------------
    a--5-5-5-5-------5-7-7-5-7--5-7-7-5-7--5-7-7-5-7--5-5-5-5-------
    e---------5-5-5-5----------------------------------------5-5-5-5
    
    
    g------------------------------------------------
    d------------------------------------------------
    a-5-7-7-5-7--5-7-7-5-7--5-7-7-5-7--5-5-5-5-------
    e-----------------------------------------5-5-5-5
    
    g------------------------------------------------
    d------------------------------------------------
    a-5-7-7-5-7--5-7-7-5-7--5-7-7-5-7--5-5-5-5-------
    e-----------------------------------------5-5-5-5
    
    g------------------------------------------------
    d------------------------------------------------
    a-5-7-7-5-7--5-7-7-5-7--5-7-7-5-7--5-5-5-5-------
    e-----------------------------------------5-5-5-5
    
    g-----------------------
  • +
    ¡Colabora con nosotros!
    Envíanos tu versión de esta canción

Santa maradona Lyrics
13 secs

37 secs
:-7-7-7-7-7--9-9-9-9-|
:-4--4-4--4--4-4--4--4-4-|
:-2--2-2--2--2-2--2--2-2-|
:-7-7-7-7-7--9-9-9-9-|
47 secs
:-7-7-7-7-7--9-9-9-9-|
55 secs
:-7-7-7-7-7--9-9-9-9-|
1:03 secs
:-7-7-7-7-7--9-9-9-9-|
1:10 secs
:-7-7-7-7-7--9-9-9-9-|
Ab:-2-2-2--2--2-2--2-2--7-7-7-7--9-9-9-9-|
1:30
gt1
gt1
:-7-7-7-7-7--9-9-9-9-|
1:37
1:45
repeat
pick slide
gt1
gt1
:-7-7-7-7-7--9-9-9-9-|
2:06
2 times
Ab:-2-2-2-2-2-2-2--4-4-4-4-4-4--7-7-7-7-7-7--9--9--9--9--|
2:21
repeat
repeat
Ab:-2-2-2-2-2-2-2--4-4-4-4-4-4--7-7-7-7-7-7--9--9--9--9--|
gt2
2:43
repeat




[Santa maradona acordes][Santa maradona cifra]
© LaCuerda.net · legal notice · privacy · es · en · pt · contact us
DINAMICO