Guitar Chords » M »Mago De Oz » Molinos de Viento (Tab)

Molinos de Viento
Mago De Oz

Lyrics, Chords & Tabs for Guitar, Bass & Ukulele

  •       G-E  E-D G-D C D (x2)
    
    
    Em              D-Em
    Si acaso tu no vez
                       Em-D
    mas alla de tu nariz
                          C D
    no oyes a una flor reir
    
    Em                D-Em
    Si no puedes hablar
                          Em-D
    sin tener que oir tu voz
                       C D
    utilizando el corazon
    
    
    Em                  D-Em
    Amigo sancho escuchame
    
  •           Em (2v)                  D
    e---------0-----0-------------------------2-----3----2------
    B-------0---0-----0---------0-----------3---3-----3----3----
    G-----0-------0-----0-----0-----------2-------2-----2----2--
    D-----------------------------------------------------------
    A-----------------------------------------------------------
    E---O------------------0-----------0------------------------
    
              C              D
    e---------0---------------2---------------------------------
    B-------1---1-----------3---3-------------------------------
    G-----0-------0-------2-------2-----------------------------
    D-----------------------------------------------------------
    A-----------------------------------------------------------
    E--0----------------0--------------------------------------
    
    Em
    Si acaso tu no vez
    Em
    mas alla de tu nariz
    
  • Solo de Molinos de Viento:
    Espero que acepten esta tablatura.
    Ninguna de las otras tablaturas esta correcta, o
    completa, el solo esta en Sol mayor, por si kieren
    improvisar un poco, pero por mientras aki aparece
    completo:
    
    -7-7-7-7-5-------5--------7-7-7-7-5----------------
    -----------8-7-8---8-7-5------------8-7-8-7-5------
    ---------------------------------------------------
    ---------------------------------------------------
    ---------------------------------------------------
    ---------------------------------------------------
    
    -7-7-7-7-5-------5---------------5-----------------
    -----------8-7-8---8-7-5---5-7-8---8-7-5-8-5-------
    -------------------------7-------------------------
    ---------------------------------------------------
    ---------------------------------------------------
    ---------------------------------------------------
    
    (2:53)
    --------------------------
    --5---7-8-7/8--7-5--7-----
    --------------------------
    --------------------------
    --------------------------
    ---------
  • WENAS ES MI PRIMERA TABLATURA QUE CUELGO AQUI
    Y CREO QUE ESTA BASTANTE BIEN, ES UNA CANCION FACIL
    AUNQUE ASI A PRIMERA VISTA PAREZCA LIOSA ESTA MUY FACIL.
    
    e |15--15--15--15--15--15--17p15--15--14h15-15-
    B |--------------------------------------------
    G |--------------------------------------------
    D |--------------------------------------------
    A |--------------------------------------------
    E |--------------------------------------------
    
       ----15--15--15--15--15--17p15--15--14h15--15-|
       17-------------------------------------------|
       ---------------------------------------------|
       ---------------------------------------------|
       ---------------------------------------------|
       ---------------------------------------------|
    
    e |----14--14--14--14--14--17p14--14-12h14-14-
    B |-15----------------------------------------
    G |-------------------------------------------
    D |-------------------------------------------
    A |-------------------------------------------
    E |----------------
  •    Em                                       D
    e|-------------0------------------0--------------------2----2h3p2--|
    B|-------0---0---0-----0------0--0--0-----0------3---3---3---------|
    G|-----0---0------0--0------0---0----0--0------2---2------2--------|
    D|---2--------------2------2-----------2------0--------------------|
    A|-2---------------------2------------------0----------------------|
    E|-----------------------------------------------------------------|
    
    Guitarra 2
       Em                                       D
    e|-------------0------------------0--------------------2----2h3p2--|
    B|-------0--------------------0--0---------------3-----3----3------|
    G|---------------------------------------------2---2---------------|
    D|------------------------------------------0----------------------|
    A|-----------------------------------------------------------------|
    E|-0---------------------0-----------------------------------------|
    
    Guitarra 1
        C          D
    e|-------------------2-----|
    
  • A= LA E= MI D= RE C= DO G= SOL B= SI F= FA
    
    HEY  MI VERDADERO MAIL ES edgar_mc_1hotmail.com
    SEGUNMDA VEZ QUE LA SUBO EN VERDAD ESTA COMPLETA
    CHEQUENLA NO SE ARREPENTIRAN ;)...)
    Intro Violin
    
    E-12-15-15-15-15-15-17-15-12-15-15-15-15-15-17-15-12-10-
    B-------------------------------------------------------
    
    E-14-14-14-14-10-16-14-14-10--------12-15--------14-17-14-15 x2
    B---------------------------13-13-13-----15-15-15-----------
    Intro guitarra
            PM
    D5 E5 E5 E5 D5 C5 C5 C5 C5 D5 D5 D5 D5 E5   x 2
    
      E5    D5    C5     G5
    E-x-----x-----x----3
    A-7-----5-----2--- 5                 Estos son los acordes
    D-9-----7-----5----5
    
  • (Intro)
    1|--------------------------------------------------------------|
    2|------------------------------------------------------------*-|
    3|-5-7--7-7--7-7-7-7--5-7--7-7-7-7-5-5-5-5-5-3-3-3-3-5-5-5-5--*-|
    4|--------------------------------------------------------------|
    
    1|--------------------------------------------------------------|
    2|------------------------------------------------------------*-|
    3|-5-7--7-7--7-7-7-7--5-7--7-7-7-7-5-5-5-5-5-3-3-3-3-5-5-5-5--*-|
    4|--------------------------------------------------------------|
    
    (0:15) Si acaso tu no vez...
    1|--------------------------------------------------------------|
    2|------------------------------------------------------------*-|
    3|-5-7--7-5--3-3-3-3-5-5-5-5----------------------------------*-|
    4|--------------------------------------------------------------|
    
    (0:22) Si no puedes hablar...
    1|--------------------------------------------------------------|
    2|---------------------------------------------------
  • este tab es de la version acustica, el bajo en esta esta afinada de la
    siguiente manera
    G
    D
    A
    D
    
    primero empieza la guitarra 2 tiempos
    despues entra el bajo asi
    G--------|------|-----|-----|-----|
    D--------|------|-----|-----|-----|
    A--------|-2-3-5|5h7-3|3h5-2|-----|
    D-0-2-0-2|5-----|-----|-----|5-4-2|
    
    (recuerden que se afina en 'D' la ultima cuerda pero si no quieren 
    afinar asi el bajo toquen algunas notas una octaba abajo)
    ejemplo de la afinacion normal
    G--------|------|-----|-----|-----|
    D--------|------|-----|-----|-----|
    A-5--5---|-2-3-5|5h7-3|3h5-2|-----|
    E--0--0--|3-----|-----|-----|3-2-0|
    nota:como ven solo cambia un poco
    
    los primeros versos se tocan igual que el intro
    G--------|------|-----|-----|-----|
    D--------|------|-----|-----|-----|
    A--------|-2-3-5|5h7-3|3h5-2|-----|
    D-0-2-0-2|5-----|-----|-----|5-4-2|
    
    y a veses asi
    G-------|----|---|---|-----|
    D-------|----|---|---|-----|
    A-------|-5--|5-3|3-2|-----|
    D-0-2---|0---|---|---|5-4-2|
    
    
  • Hola!
    Creo, de las mejores canciones de Mago.
    Aquí tienen:las notas entre
    parentesis son del violin
    
    TODOS LOS FA SON SOSTENIDOS!!!!!!!!!!!
    
    Intro:
    sol sol sol sol sol sol la sol fa sol sol fa mi
    sol sol sol sol sol sol la sol fa sol sol fa re
    fa fa fa fa fa fa sol fa fa mi fa sol
    do do do mi sol, do do do fa la sol (se repite 2 veces)
    
    Si acaso..
    sol sol sol la sol sol
    sol sol sol la sol sol
    fa fa fa sol fa mi fa sol (do do do mi sol do do do fa la sol)
    Todo esto dos veces
    
    sol sol sol la sol fa sol mi
    sol sol sol la sol fa sol re
    fa fa fa sol fa mi fa sol
    Todo 2 veces
    
    Coro:
    sol mi sol mi sol mi
    fa sol la fa re mi fa sol mi, sol mi
    sol mi sol mi sol mi
    fa sol la fa re mi fa sol mi, sol
    si sol si sol si sol
    si do re la fa sol la si sol la si
    si sol si sol si sol
    si do re la fa sol la si
    mi re do si do si la si la sol fa mi sol
    
    Se repite TODO otra vez, y despues del segundo coro va:
    (violin solo, pero queda casi igual en flauta)
    
    fa, fa fa fa fa fa fa fa fa
    si si si si si si si,
    si s
  • +
    ¡Colabora con nosotros!
    Envíanos tu versión de esta canción
  • Tutorial
    HD
    Como tocar "Molinos de Viento" de Mago de Oz - Tutorial Guitarra + TAB (HD)
    0:16
  • Tutorial
    HD
    Como tocar MOLINOS DE VIENTO de MÄGO DE OZ Tutorial Guitarra + TAB en pantalla (eng subs)
    21:47
  • Tutorial
    HD
    Molinos de Viento - Solo (Guitar Cover)
    0:44

Molinos de Viento Lyrics
Si acaso tu no vez
mas alla de tu nariz
no oyes a una flor reir
Si no puedes hablar
sin tener que oir tu voz
utilizando el corazon
Amigo sancho escuchame
no todo tiene aqui un porque
un camino lo hacen los pies
Hay un mundo por descubrir
y una vida que arrancar
de brazos del guion final
Estribillo
A veces siento al despertar
que el sueño es la realidad
Bebe, danza, sueña
Siente que el viento a sido hecho para ti
Vive escucha y habla
usando para ello el corazon
Siente que la lluvia besa tu cara cuando haces el amor
Grita con el alma grita tan alto
que de tu vida tu seras amigo del unico actor
Si acaso tu opinion
cabe en un si o un no
Y no sabes rectificar
Si puedes definir
el odio o el amor
Amigo que desilusion
No todo es blanco o negro es gris
Todo depende del matiz
Busca y aprende a distinguir
La luna puede calentar
y el sol tus noches acunar
los arboles mueren de pie
He visto un manantial llorar
Al ver sus aguas ir al mar
Estribillo ( Sin los "D C" )




[Molinos de Viento acordes][Molinos de Viento cifra]
© LaCuerda.net · legal notice · privacy · es · en · pt · contact us
DINAMICO