Guitar Chords » M »Mago De Oz » La danza del fuego (Tab)

La danza del fuego
Mago De Oz

Lyrics, Chords & Tabs for Guitar, Bass & Ukulele

  • Intro: Dm Am Dm F C Dm
    
       Dm            Am
    Cuanto mas he de esperar
       Dm            Am
    cuanto mas he de buscar
      F         C
    para poder encontrar
     F          C            Dm
    la luz que se que hay en mi
    
     Dm           Am
    He vivido en soledad
     Dm           Am
    rodeado de multitud
     F              C
    nunca he conseguido amar
      F           C       Dm
    pues no me quiero ni yo
    
    
  • intro: F-C-Am-Dm
    
       Dm            Am
    Cuanto mas he de esperar
       Dm            Am
    cuanto mas he de buscar
      F         C
    para poder encontrar
     F          C            Dm
    la luz que se que hay en mi
    
     Dm           Am
    He vivido en soledad
     Dm           Am
    rodeado de multitud
     F              C
    nunca he conseguido amar
      F           C       Dm
    pues no me quiero ni yo
    
    
  • intro F-C-Am-Dm
    
    intro (violín)
    X2 (en la 2a vez con acordes destorsionados)
    ---------------------------------------------------------
    ---------------------------------------------------------
    --7-9-10--9-7--------7-9-7----7-9-10--9-7-----9-7-----7--
    --------------10--10----------------------10-------10----
    ---------------------------------------------------------
    ---------------------------------------------------------
    
    ---------------------------------------------------------
    ------------------------------------------8--10-8--------
    --7-9-10--9-7--------7-9-7----7-9-10--9-7----------9-7~-
    --------------10--10-------------------------------------
    ---------------------------------------------------------
    ---------------------------------------------------------
    
    verso 1
    
    
  • E|------------------|---------------|--------------|------------------|
    B|------------------|---------------|--------------|------------------|
    G|-------5---5---7--|----5--9-7-5-7-|-----5--5--7--|-----5--14-12-9-7-|
    D|---3---5---5---7--|-3--5--9-7-5-7-|--3--5--5--7--|--3--5--14-12-9-7-|
    A|---3---3---3---5--|-3--3--7-5-3-5-|--3--3--3--5--|--3--3--12-10-7-5-|
    E|---1--------------|-1-------------|--1-----------|--1---------------|
    
    VERSO 1 (0:54)
    
    Dm9           Am
    CUANTO MAS HE DE ESPERAR
    Dm9           Am
    CUANTO MAS HE DE BUSCAR
    F             C
    PARA AL FIN PODER ENCONTRAR
    F             C
    LA LUZ QUE SE QUE HAY EN MI
    
    HE VIVIDO EN SOLEDAD
    RODEADO DE MULTITUD
    
  • Hola como están esta es otra colaboración que hago,
     esta canción me gusta mucho y el bajo es muy fácil de sacarlo.
    A por cierto esta canción la saco así en mi grupo
     de la Universidad Salesiana en Quito.
    Solo póngale ganas y les va a salir perfecto. Suerte
    Y que “Viva Ecuador”. “Cabrones”.
    
    Intro 00:00
    Que le corresponde al violin y las guitarras.
    
    Min 00:27  Entra el bajo con el violin y las guitarras
    G ----------------------------------------------
    D ------0------0--------0----0------0--------0--
    A -0--3---0--0-----3--3--------0--0-----3--3----  X1
    E ---------------1--------------------1---------
    
    Min 00:54 “Verso”I
    G ----------------------------------------
    D -------0-0-----0-0-------------0---0-0--
    A -0-3-------0-0-----3-3-----3-3---0------
    E -----------------------1-1--------------
    
    G ----------------------------------------
    D -0-0-----0-0--------------0---0-0-------
    A -----0-0-----3-3-----3-3----0-----------
    E -----------------1-1--------------------
    
    Min 01:38 “Vi
  • Pura guitarra y violin
    
    G|-------------|---------------|-------------|---------------|
    D|-------------|-------2-------|-------------|-------7-5-----|
    A|-----3--3--5-|-----3---5-3-5-|-----3--3--5-|-----3-----7-5-|
    E|--1----------|--1------------|--1----------|--1------------|
    
    G|-----------|
    D|-----------|
    A|-----3--5--|
    E|-0/1-------|
    
    Esta parte se hace dos veces
    G|----------|------------------|
    D|*--------*|------------------|
    A|*-5-5----*|-----3-3----------|
    E|-----5-5--|-1-1-----1/8-8-10-|
    
    G|-----------------------------|
    D|-----------------------------|
    A|----3-----3-----3------------|
    E|-1-----1-----1-----1/8-8--10-|
    
    Esta parte la haces 4 veces
    G|---------------------------------|
    D|-3-3-----------------------------|
    A|-----3-3-3-3-5-5-----3-3-3-3-5-5-|
    E|-----------------5-5-------------|
    
    G|--------------------|---------------------------------|
    D|*------------------*|---------------------------------|
    A|*-5-5-1-1-33333333-*|---------3-3-3-3----
  • bajo
    
    
    
                                                                                   
    G||------------------|------------------|------------------|------------------|
    D||------------------|------------------|------------------|------------------|
    A||------------------|------------------|------------------|------------------|
    E||------------------|------------------|------------------|------------------|
    
    
                                                                                
    ------------------|------------------|------------------|------------------|
    ------------------|------------------|------------------|------------------|
    ------------------|------------------|------------------|------------------|
    ------------------|------------------|------------------|------------------|
    
    
                                                                                
    ------------------|------------------|------------------|------------------|
    ------------------|----------
  • Hola
    esto creo q no es pa teclado,
    sino pa flauta, pero probad
    con lo q querais
    aqui teneis
    
    
    Intro:
    re mi fa  mi re do  do re mi re
    re mi fa  mi re do  mi re do re   (bis)
    re mi fa  mi re do  do re mi re
    re mi fa  mi re sol  la sol mi re
    
    
    Cuanto mas...
    fa fa fa fa mi re do
    re re re re do si la    (bis)
    fa fa fa sol la do sol mi
    fa mi re sol do mi re
    
    
    Estribillo:
    re mi fa fa fa sol fa mi re do
    do do do do re mi re
    re mi fa fa fa sol fa mi sol la
    la sol fa mi re do re
    
    Si eres capaz...
    fa fa fa fa fa mi re do
    re re re re re re do si la
    fa fa fa fa sol la do do la mi
    mi fa mi re sol do mi re
    
    No eches raices...
    fa fa fa fa fa fa sol fa mi re do re mi
    re re re re re re mi re do si la si do
    
    El hombre mas sabio...
    fa fa fa fa fa fa
    sol la do do do fa mi
    mi mi fa sol mi do la sol fa mi re
    
    
    Esto es todo, luego to se repite.
    Cualquier duda o lo q sea
    xabier_agirrezabala@hotmail.com
  • No es para armónica.
    Esta es una versión para flauta dulce o de pico.
    Disfrutenla y sigan escuchando Mägo de Oz.
    
    Intro
    
    Mi,Fa#,Sol,Fa#,Mi,Re
    Re,Mi,Fa#,Mi
    Mi,Fa#,Sol,Fa#,Mi,Re
    Fa#,Mi,Re,Mi
    Mi,Fa#,Sol,Fa#,Mi,Re
    Re,Mi,Fa#,Mi
    Mi,Fa#,Sol,Fa#,Mi,La
    Si,La,Fa#,Mi
    
    Aquí se puede repetir o tocar más abajo:
    
    La,Si,do,Si,La,Sol
    Sol,La,Si,La
    La,Si,do,Si,La,Sol
    Si,La,Sol,La
    La,Si,do,Si,La,Sol
    Sol,La,Si,La
    La,Si,do,Si,La,re
    mi,re,Si,La (Si,La,Sol,Fa#,Mi,Re).
    
    
    Cuanto más he de esperar
    Si  Si Si  Si La Sol Fa#
    Cuanto más he de buscar
    Sol Sol Sol Sol Fa# Mi Re
    Para po-o-oder encontrar
    Si Si Si do re mi Si La
    La luz que se que hay en mí
    do Si  La  Sol La  Si   La
    
    He vivido en soledad
    Si Si Si Si La Sol Fa#
    Ro-o-deado  de  multitud
    Sol Sol Sol Sol Fa# Mi Re
    Nunca he conseguido amar
    Si Si Si do re mi Si La
    Pues no me quiero ni yo
    do   Si La Sol La Si La
    
    Solo 1
    fa,re,La   fa,re,La
    mi,do,La   mi,do,La  x2
    fa,do,La   fa,do,La
    mi,do,Sol  mi,do,Sol
    fa,re,La   Mi,La,do,re,fa,mi,re
    
    
    Cuando veas una e
  • +
    ¡Colabora con nosotros!
    Envíanos tu versión de esta canción

La danza del fuego Lyrics
Cuanto mas he de esperar
cuanto mas he de buscar
para poder encontrar
la luz que se que hay en mi
He vivido en soledad
rodeado de multitud
nunca he conseguido amar
pues no me quiero ni yo
Cuando veas una estrella fugaz
guardala en tu corazón
es el alma de alguien que consiguio
dar a los suyos su amor
Cuando oigas a un niño preguntar
porque el sol viene y se va
dile porque en esta vida no hay
luz en la obscuridad
Si eres capaz de devolver
con una sonrisa una traición
si eres capaz de ver todo lo bien
con la suya enseñalo
No heches raices en el sitio, muevete
pues no eres un arbol para eso tienes los pies
el hombre mas sabio es el que sabe que su hogar
es tan grande como pueda imaginar
el mejor dia es en el que el alma tiene hambre y sed
no olvides lo aprendido no dejes de comprender
rodeate de buenos y tu lo padeceras
rodeate de sabios y algo en ti se quedara
(se repite)
Cuando veas una estrella fugaz.......
Cuando oigas una estrella fugaz.......




[La danza del fuego acordes][La danza del fuego cifra]
© LaCuerda.net · legal notice · privacy · es · en · pt · contact us
DINAMICO