Guitar Chords » M »Mac Salvador » Sandy (Tab)

Sandy
Mac Salvador

Lyrics, Chords & Tabs for Guitar, Bass & Ukulele

  •       REm                                     DO
       de tanto andar en vano he vivido sin encontrar
           REm                                    DO
       la mujer que fuera ideal y me amara de verdad
                           LA#       LAm   SOL   FA
       decidido dije una vez que ya no volvería amar jamás
                         DO                     LA#     LA
       Ahora te conozco y no se que hacer ni contigo ni sin ti
             REm                     LA#        LAm  SOL    FA
       porque tu llegaste a mi cuando mi corazón  esta por morir de soledad
                            DO               LA#             LA         REm
    
       Intermedio:   FA - LA7 - REm - FA - LA7 - REm
                     FA - LA# - FA - DO - FA
                     FA - LA# - FA - LA - REm
    
       Repetir :  (1 )
    
       Quiero amarte a ti y que mi corazon ame
               FA                      DO
    
  • e)----1-------------|-------------------|-------1-------------|
    B)---3----3/5-3-----|-------------------|------3----3/5-3-----|
    G)--2-----------2~--|--R0h2-2h0----0h2--|----2------------2~--|
    D)-0----------------|------------3------|--0------------------|
    A)------------------|-------------------|---------------------|
    E)------------------|-------------------|---------------------|
    
    
    e)-R3h5--5h3-1-3h5----|-----------------------------|
    B)--------------------|-----------------------------|
    G)--------------------|-----------------------------|
    D)--------------------|--------2-0h2h0----0h2h0-----|
    A)--------------------|----0-3----------3-----------|
    E)--------------------|-----------------------------|
    
    
    riff 1
    
    e)--10 10/12-10-10/8------
    B)------------------------
    
  •     D
    E|--------0h1-------------------------------------------------------|
    B|------3-----3-----------------------------------------------------|
    G|----2---------2--0h2--2h0-----0h2---------------------------------|
    D|--0------------------------3--------------------------------------|
    A|------------------------------------------------------------------|
    E|------------------------------------------------------------------|
    
    E|--------0h1------3h5-5---1--3h5-----------------------------------|
    B|------3-----3-----------------------------------------------------|
    G|----2---------2---------------------------------------------------|
    D|--0---------------------------------------------------------------|
    A|------------------------------------------------------------------|
    E|------------------------------------------------------------------|
    
    E|------------------------------------------------------------------|
    B|------------------------------------------------------------------|
    G|------------------------------------------------------------------|
    D|--------2-0h2-----0h2---------------------------------------------|
    A|--0--3---------3--------------------------------------------------|
    
  • +
    ¬°Colabora con nosotros!
    Envíanos tu versión de esta canción

Sandy Lyrics
de tanto andar en vano he vivido sin encontrar
la mujer que fuera ideal y me amara de verdad
decidido dije una vez que ya no volvería amar jamás
Ahora te conozco y no se que hacer ni contigo ni sin ti
porque tu llegaste a mi cuando mi corazón esta por morir de soledad
Repetir : (1 )
Quiero amarte a ti y que mi corazon ame
por ultima vez y muera por ti
no me importa si tu no me quieras a mi noo
pero quiero morir amandote
Sandy
Final: Repetir intermedio
Ahí tengo mas canciones de él, otro día los
pongo,saludos para los amigos de
'Nostalg√≠a Nasque√Īa'.




[Sandy acordes][Sandy cifra]
© LaCuerda.net · legal notice · privacy · es · en · pt · contact us
DINAMICO