Guitar Chords » L »Luis Abanto Morales » Nunca Podrán (Tab)

Nunca Podrán
Luis Abanto Morales

Lyrics, Chords & Tabs for Guitar, Bass & Ukulele

  • |-------5-5-5s8---8-6------------------------------17---17-|
    |-----6---7-7s10-10-8--8----8---------8-13-11-10-----------|
    |---7--------------------10---10-9---9---------------14----|
    |-7--------------------------------10----------------------|
    |----------------------------------------------------------|
    |----------------------------------------------------------|
    
    |----------------------------------------------------------|
    |------6-----6------6--8-6-5-------------------------------|
    |------7-----7------7--9-7-6-------------------------------|
    |--6h7---6h7----6h7----------------------------------------|
    |----------------------------------------------------------|
    |----------------------------------------------------------|
    
    |----------------------------------------------------------|
    |------5-----5-----5-5s8-8-6-6-6s8-8s10-10-10s13-13-11-----|
    |------6-----6-----6-6s9-9-7-7-7s9-9s11-11-11s14-14-12-----|
    |--6h7---6h7---6h7-----------------------------------------|
    |----------------------------------------------------------|
    |----------------------------------------------------------|
    
  • +
    ¡Colabora con nosotros!
    Envíanos tu versión de esta canción

Nunca Podrán Lyrics
Muchas cosas te estan diciendo de mi,
pues lo que quieren, es separarme de ti.
Sé que te dicen que no soy libre,
que soy un malo,tengo un pasado,
me gusta el juego y la bebida,
tu bien lo sabes: eso es mentira.
Nunca hagas caso cuando te hablen de mi,
porque mi vida la he cambiado por ti.
Asi es el mundo, hay gente mala
que solo trata de hacernos daño,
soy tu cariño, tu eres mi vida,
pero apartarnos : solo el señor.
Por mas que intenten separarnos,
por mas que busquen alejarnos,
sera dificil que lo logren,
porque en mi amor, esta tu nombre.
Si algunas veces he mentido,
y en muchas otras he bebido,
¿Quien en la vida no ha sufrido,
por no ser correspondido?
Rep tema

Nunca Podrán Video
[watch more videos]




[Nunca Podrán acordes][Nunca Podrán cifra]
© LaCuerda.net · legal notice · privacy · es · en · pt · contact us
DINAMICO