Guitar Chords » L »Les Luthiers » Añoralgias (Tab)

Añoralgias
Les Luthiers

Lyrics, Chords & Tabs for Guitar, Bass & Ukulele

  •            D          A7        D
    Esta zamba canto a mi tierra distante
               G        D7          G
    cálido pueblito de nuestro interior.
              A     (A/B)   (A/C#)   D
    Tierra ardiente que inspira mi amor,
      B7/F#    B7                Em
    credosa, reseca, de sol calcinante;
          A          A7      D
    recordando esa tierra quemante
    C           F      A7     D
    resuena mi grito: ¡qué calor!
    
    
    (ESTROFA)
    Cómo te recuerdo, mi lindo pueblito;
    con tu aire húmedo y denso de día.
    Noches cálidas de fantasía,
    pobladas de magia, de encanto infinito.
    Y el cantar de tu fresco arroyito,
    
  • D                      A          D
    Esta zamba canto a mi tierra distante
    B7                              G
    cálido pueblito de nuestro interior
       A                             D
    tierra ardiente que inspira mi amor
               B7               Em
    credoza reseca de sol calcinante
          A                  D
    recordando esa tierra quemante
      Gm          F       A    D
    resuena mi grito ¡¡ que calor !!
    
    Como te recuerdo mi lindo pueblito
    con tu aire húmedo y denso de día
    noches cálidas de fantasía
    pobladas de mate de encanto infinito
    y el cantar de tu fresco arroyito
    salvo en los diez meses de la sequía.
    
    
  • D                      G          D
    Esta zamba canto a mi tierra distante
    G                   D           G
    cálido pueblito de nuestro interior
    A                                D
    tierra ardiente que inspira mi amor
               B7               Em
    credoza reseca de sol calcinante
          A                  D
    recordando esa tierra quemante
    Gm           F       A    D
    resuena mi grito ¡¡ que calor !!
    
    Como te recuerdo mi lindo pueblito
    con tu aire húmedo y denso de día
    noches cálidas de fantasía
    pobladas de mate de encanto infinito
    y el cantar de tu fresco arroyito
    salvo en los diez meses de la sequía.
    
    
  •                                    LA7
    23 12 10 13 12 15, 14 15, 27 110, 19 110 111 112,
                          RE     (RE-REsus4-RE)
    112 110 19, 17 15, 13 12.
                         LA7     (LA7-LAm7-LA7)
    40 40 44 54 42 52 40 50.
    
    60 60 62 SOLm FA, LA7 RE.
    
    Versión completa: (la transcribo con tablatura porque es más compleja)
    
                                  (LA7)             (RE-REsus4-RE)
    1|-------------------------10--9-10-11-12---12-10-9-7-5-3-2--------------
    2|---7---8--7-10--9-10----------------------------------5-3--------------
    3|-7---9---------10-11--11-----9-10-11-12---12-11-9-7-6------------------
    4|-----------------------------------------------------------------------
    5|-----------------------------------------------------------------------
    6|-----------------------------------------------------------------------
                     (LA7-LAm7-LA7)    (SOLm) (FA) (LA7) (RE)
    1|--------------------------------------3----1----0--2-------------------
    
  • E------------------------------------------------------------------
    A------------------------------------------------------------------
    D------------------------------------------------------------------
    G-----------------------11-----------------------------------------
    B--3---5---7----7-6-7-----------10--12-13-14---14--12--10-8-7-5-3--
    E----2---3---5--5-4-5-------10---9--10-11-12---12--10--9--7-5-3-2--
    
    
    E----------------------------------------0-2-3---------1------------------
    A-----------------4---2---0-4--------------------------------0------------
    D-----------0-0-4---2---0-------4-----------------------------------------
    G---------------------------------6-5-6----------3---------2--------0-----
    B--------------------------------------------------3---------1--------2---
    E--2-3-2---------------------------------------------3---------1--------1-
    
    
    D  A7          D          A7         D
       Esta zamba canto a mi tierra distante
                  G         D7          G
       cálido pueblito de nuestro interior
    
  •                                     A
     E|-------------------------------------|
     B|-------------------------------------|
     G|-------------------------------------|
     D|--7--9--11-10-11--11----9----11--12--|
     A|--7--8--10--9-10---------------------|
     E|------------------10------9--10--12--|
    
                                         D
     E|-------------------------------------|
     B|-------------------------------------|
     G|-------------------------------------|
     D|-12--12--11--9----7--6----4-------2--|
     A|-------------------------------------|
     E|-12--12--10--9----7--5----3--5h3--2--|
    
    
           D    F#m    E      A
     E|-------------------------------------|
     B|--------------------------2-2h0-2----|
    
  • +
    ¡Colabora con nosotros!
    Envíanos tu versión de esta canción

Añoralgias Lyrics
Esta zamba canto a mi tierra distante
cálido pueblito de nuestro interior
tierra ardiente que inspira mi amor
credoza reseca de sol calcinante
recordando esa tierra quemante
resuena mi grito ¡¡ que calor !!
Como te recuerdo mi lindo pueblito
con tu aire húmedo y denso de día
noches cálidas de fantasía
pobladas de mate de encanto infinito
y el cantar de tu fresco arroyito
salvo en los diez meses de la sequía.
Siempre fue muy calmo mi pueblo adorado
salvo aquella vez que pasó el huracán
viejos pagos que lejos están
mi tierra querida, mi dulce poblado
tengo miedo de que hallas cambiado
después de la última erupción del volcán.
Tierra que hasta ayer mi niñez cobijaba
siempre te recuerdo con el corazón
aunque aquel arroyito dulzón
hoy sea un hirviente torrente de lava
que por suerte a veces se apaga
cuando llega el tiempo de la inundación.
Los hambrientos lobos aullando estremecen
cuando son mordidos por fieros mosquitos
no se puede dormir por los gritos
de miles de buitres que el cielo oscurecen
Siempre algún terremoto aparece
y al atardecer llueven meteoritos.
Y si a mi pueblito volver yo pudiera
a mi viejo pueblo al que no he regresado
si pudiera volver al poblado
que siempre me llama, que siempre me espera,
no lo haría ni mamado.




[Añoralgias acordes][Añoralgias cifra]
© LaCuerda.net · legal notice · privacy · es · en · pt · contact us
DINAMICO