Guitar Chords » L »León Larregui » Locos (Tab)

Locos
León Larregui

Lyrics, Chords & Tabs for Guitar, Bass & Ukulele

  • SOLm, DOm, FA, SOLm (x2)
    
    SOLm          DOm                FA
    Estoy contento,  de tenerte cerca,
                 SOLm
    muy cerca de mi.
                      DOm                 FA
    Que me digas loco. Que me des de besos,
                    SOLm
    Y que te rías de mí.
    
    DOm                SOLm DOm             SOLm  RE7
    Sabes que quiero decir, ya no me mires así... Ohhh!
    
    DOm                       FA
    Simplemente puedo decirte. Que tu eres lo más bonito
    REm                     SOLm
    que he visto en toda mi vida.
     DOm                             FA
    Y sé que nunca te lo he dicho. Y me da miedo confesarte
    
  • Intro: Em, Am, D, Em x2
    
    Em             Am
    Estoy contento de tenerte cerca
    D            Em
    muy cerca de mí
    Em
    Que me digas loco
    Am
    Que me des de besos
    D                Em
    Y que te rías de mí
    
    Am                 Em
    Sabes que quiero decir
    Am              Em  Esus7
    ya no me mires así
    
    Am
    Y simplemente puedo decirte
    
  • Locos - León Larregui
    
    Esta rola tiene una base muy sencilla pero tiene muchos arreglos,
    los que pongo aquí son los que más se usan pero no
    tengan miedo de echarle feeling.
    
    Intro (G - C - F - G)
    G|---------------------------------------------------------|
    D|---------3---------------3------------3---------35/3----|
    A|------3h5--5-3---3--3-3h5-5-3------3h5-5-3-----------5-3-| x2
    E|--3--3-------------------------1--1----------3-----------|
    
    
    Verso(G - C - F - G)
    G|-----------------------------------------|
    D|--------------------------------3-5-3----|
    A|-----------3--3-3--3-----------------5-3-| x2
    E|--3--3-3--3---------1--1-1--1-3----------|
    
    Pre-coro(C - G - C - A)
    Sabes que quiero decir...
    G|-----------------------------|
    D|-----------------------------|
    A|--3--3-3--3------------------|
    E|---------1-1--3--3-3--3-4-5--|
    
    G|--------------------------|
    D|-----------------57--7---|
    A|--3--3-3--3---------------|
    E|---------1-1--3-----------|
    
    Coro (C - F - D - G)
    Simplemente puedo decirt
  • +
    ¡Colabora con nosotros!
    Envíanos tu versión de esta canción

Locos Lyrics
Estoy contento, de tenerte cerca,
muy cerca de mi.
Que me digas loco. Que me des de besos,
Y que te rías de mí.
Sabes que quiero decir, ya no me mires así... Ohhh!
Simplemente puedo decirte. Que tu eres lo más bonito
que he visto en toda mi vida.
Y sé que nunca te lo he dicho. Y me da miedo confesarte
Pero antes quiero besarte.
Y llevo un rato tratando de de decirte,
Que ya no puedo vivir sin ti,
Llevo años tratando de decirte,
Que te amooohhh!!!
Estoy contento, De tenerte cerca,
muy cerca de mí.
Que me digas loco, Que me des de besos,
Y que te rías de mi.
Sabes que quiero decir, Ya no me mires así.
Y simplemente puedo decirte, Que eres lo más bonito,
que he visto en toda mi vida.
Y sé que nunca te lo he dicho, Y me da miedo confesarte,
Pero antes quiero besarte.
Y llevo un rato tratando de de decirte,
Que ya no puedo vivir sin ti,
Llevo años tratando de decirte,
Que te amooohhh!!!
Esta noche está loca como yo. Esta noche,
Esta noche estas loca como yo. Estás loca.
esta rola se la dedico a mi amor platonico ana katia...
siempre te amare...




[Locos acordes][Locos cifra]
© LaCuerda.net · legal notice · privacy · es · en · pt · contact us
DINAMICO