Guitar Chords » K »Kraken » Muere Libre (Tab)

Muere Libre
Kraken

Lyrics, Chords & Tabs for Guitar, Bass & Ukulele

  •  E                      D
    Rompe el silencio de un grito
                        E
    que el mundo te escuche
          D
    no temas actuar
    E                  D
    No seas el sueño vencido que teme
       A                  D
    y vence a quien teme soñar
        A                     D
    no seas la copia de un falso bufón
                    A
    se uno sé tú y nada mas
                     A
    se es libre al momento
                    D
    de actuar con razón
         A          C        D
    No vivas para ser, la presa de otros sueños
    
  •   E5                          D5
    E--------------------------------------------------------------
    B-t8t7-5-t8t7-5-t8t7-5-t8t7-5-t8t10-7-t8t10-7-t8t10-7-t-8t10-7-
    G--------------------------------------------------------------
    D--------------------------------------------------------------
    A--------------------------------------------------------------
    E--------------------------------------------------------------
      C5                          B5               C5  B5
    E---------------------------------------------------------
    B-t8t7-5-t8t7-5-t8t7-5-t8t7-5-t5t7-4-t5t7-4-t5t7-4-t5t7-4-
    G---------------------------------------------------------
    D---------------------------------------------------------
    A---------------------------------------------------------
    E---------------------------------------------------------
    El acompañamiento del riff 1 lo puede hacer el bajo o una
     Segunda guitarra
    
     Riff 2:
    E-------------------------------------------------------
    B-------------------------------------------------------
    
  • NOTA:
    
    Espero y te ayude en algo esta tab.
    
    Si necesitas una tab en especial, escríbeme o visita...
    
    http://www.myspace.com/alejandrolauyola
    
         W                   W                   W
    G||-------------------|-------------------|-------------------|
    D||-------------------|-------------------|-------------------|
    A||-------------------|--5----------------|--3----------------|
    E||--0----------------|-------------------|-------------------|
    
    
      H        H           W                   W
    --------------------|-------------------|-------------------|
    --------------------|-------------------|-------------------|
    --2--------3--------|-------------------|--5----------------|
    --------------------|--0----------------|-------------------|
    
    
      W                   Q    Q    Q    Q
    -------------------|----------------------|
    -------------------|----------------------|
    --3----------------|-------0----2----3----|
    -------------------|--3-------------------|
    
    
         |-3-|    |-3-|    |-3-|
      E  S S S 
  • +
    ¡Colabora con nosotros!
    Envíanos tu versión de esta canción

Muere Libre Lyrics
Rompe el silencio de un grito
que el mundo te escuche
no temas actuar
No seas el sueño vencido que teme
y vence a quien teme soñar
no seas la copia de un falso bufón
se uno sé tú y nada mas
se es libre al momento
de actuar con razón
No vivas para ser, la presa de otros sueños
se vive una vez para ser
eternamente libre
BUENO ESTA ES MI PRIMER CANCION ESPERO QUE LES GUSTE Y QUE SUENE BIEN




[Muere Libre acordes][Muere Libre cifra]
© LaCuerda.net · legal notice · privacy · es · en · pt · contact us
DINAMICO