Guitar Chords » J »Juan Gabriel » Así fue (Tab)

Así fue
Juan Gabriel

Lyrics, Chords & Tabs for Guitar, Bass & Ukulele

  • C
    PERDONA SI TE HAGO LLORAR
    Dm
    PERDONA SI TE HAGO SUFRIR
          F                    G    
    PERO ESQUE NO ESTA EN MIS MANOS
          F                     G
    PERO ESQUE NO ESTA EN MIS MANOS
            Am             G          C     
    ME ENAMORADO, ME ENAMORADO, ME ENAMORE
    
    
    C
    PERDONA SI TE CAUSO DOLOR
        Dm
    PERDONA SI TE DIGO ADIOS
     F                  G
    COMO DECIRLE QUE TE AMO
      F                  G
    COMO DECIRLE QUE TE AMO
    
  •        A                   B         C#m          B            E
    e-----12-12-12-12-11-11-9-------------9-----9-----------9-9-------
    B-------------------------12--12-9-12-----9----9-12---9-----9-12--
    G---9-------------------------------------------------------------
    D-----------------------------------------------------------------
    A-----------------------------------------------------------------
    E-----------------------------------------------------------------
    
        E
    Perdona si te hago llorar,
        F#m
    perdona si te hago sufrir,
          A                      B
    pero es que no está en mis manos,
          A                       B
    pero es que no está en mis manos,
               C#m               B
    me he enamorado, me he enamorado,
             E
    me enamoré.
    
  •       A            1/2  B          C#m
                      |---|
    e-----12-12-12-12-11-11-9-------------9---(9)-
    B------------------------ 12--12-9-12---------
    G---9-----------------------------------------
    D---------------------------------------------
    A---------------------------------------------
    E---------------------------------------------
    
             B                  E
    e----9-----------------9-9----------
    B--9---9-12---(12)---9-----9-12---9
    G-----------------------------------
    D-----------------------------------
    A-----------------------------------
    E-----------------------------------
    
    
    
                Así quedaría Octavada:
    
  • INTRO x2 veces: LENTO Y POCO A POCO
    ------------------------------------------------------------------------
    ACORDE:     A               B   <---- MANO DERECHA ACOMPAÑAMIETO
    -------------------------------------------------------------------------
    NOTAS : A A E E E E E Db Cb B B <---- MANO IZQUIERDA
    -------------------------------------------------------------------------
    |A|Ñ|A|D|I|D|O| P|O|R| |D|A|N|I|E|L| |M|U|N|G|U|I|A| XALAPA VER.
    
    
    E
    PERDONA SI TE HAGO LLORAR
     B  B B  B  B B A   Ab Ab
    
    F#m
    PERDONA SI TE HAGO SUFRIR
    Cb Cb Cb Cb Cb Cb B A  A
    
          A                    B
    PERO ES QUE NO ESTA EN MIS MANOS
    E E      E   E    E  Db Cb  B  B
    
          A                     B
    PERO ES QUE NO ESTA EN MIS MANOS
    E E      E   E    E  Db Cb  B  B
    
            C#m             B
    ME HE ENAMORADO, ME HE ENAMORADO
    B  Ab   B Cb Cb  Cb Cb   Cb  B B
    
    E
    ME ENAMORE
    B   B B B A Ab
    
    
    E
    PERDONA SI TE CAUSO DOLOR
     B  B B  B  B B A   Ab Ab
    
        F#m
    PERDONA SI TE DIGO ADIOS
    Cb Cb Cb Cb Cb Cb B A  A
    
     A       
  • +
    ¡Colabora con nosotros!
    Envíanos tu versión de esta canción

Así fue Lyrics
PERDONA SI TE HAGO LLORAR
PERDONA SI TE HAGO SUFRIR
PERO ESQUE NO ESTA EN MIS MANOS
PERO ESQUE NO ESTA EN MIS MANOS
ME ENAMORADO, ME ENAMORADO, ME ENAMORE
PERDONA SI TE CAUSO DOLOR
PERDONA SI TE DIGO ADIOS
COMO DECIRLE QUE TE AMO
COMO DECIRLE QUE TE AMO
SI ME HA PREGUNTADO
YO LE DIJE QUE NO, YO LE DIJE QUE NO
SOY ONESTO CON ELLA Y CONTIGO
A ELLA LA AMO Y A TI TE OLVIDADO
SI TU QUIERES SEREMOS AMIGOS
YO TE AYUDO A OLVIDAR EL PASADO
NO TE AFERRES, YA NO TE AFERRES
A UN IMPOSIBLE, YA NO TE AMO
NI ME HAGAS MAS DAÑO, YA NO
TU BIEN SABES QUE NO FUE MI CULPA
TU TE FUISTE SIN DECIRME NADA
Y A PESAR QUE LLORE COMO NUNCA
YA NO SEGUIA DE MI ENAMORADA
LUEGO TE FUISTE, Y QUE REGRESABAS
NO ME DIJISTE Y SIN MAS NADA
PORQUE NO SE, PERO FUE ASI
ASI FUE
TE BRINDE LA MEJOR DE LAS SUERTES
YO ME PROPUSE NO HABLARTE Y NO VERTE
Y HOY QUE HAS VUELTO YA DE ESO NO HAY NADA
YA NO DEBO NO PUEDO QUERERTE
YA NO TE AMO, ME ENAMORADO
DE UN SER DIVINO DE UN BUEN AMOR
QUE ME ENSEÑO, A OLVIDAR Y A PERDONAR
SE REPITE EL PARRAFO 3 Y ACABA ALGUNA DUDA O COMENTERIO A ggarcia@tepic.megared.net.mx




[Así fue acordes][Así fue cifra]
© LaCuerda.net · legal notice · privacy · es · en · pt · contact us
DINAMICO