Guitar Chords » J »José Luis Perales » El Amor (Tab)

El Amor
José Luis Perales

Lyrics, Chords & Tabs for Guitar, Bass & Ukulele

  • Dm
    El amor
                           A7
    es una gota de agua en el cristal
                      Dm        Bb
    es un paseo largo sin hablar
                      A7
    es una fruta para dos.-
    
    Dm
    El amor
                           Gm
    es un espacio donde no hay lugar
                         Dm
    pra otra cosa que no sea amar
       A7              Dm
    es algo entre tú y yo.-
    
    
    S: Estribillo
    
  • MIm                           SI7
    El amor es una gota de agua en el cristal
                       MIm                   SI7
    Es un paseo largo sin hablar es una fruta para dos.
       MIm            MI7                LAm
    El amor es un espacio donde no hay lugar
                        MIm                SI7    MIm
    Para otra cosa que no sea amar es algo entre tú y yo.
    
                               LAm
    El amor es llorar cuando nos dice adiós
             RE7                 SOL 
    el amor es soñar oyendo una canción
             SI7                  MIm
    el amor es besar poniendo el corazón
                SI7                  
    Es perdonarme tú y comprenderte yo.
    
              MIm                     LAm
    El amor es parar el tiempo en un reloj
    
  •     Dm                                 A7                                   Dm           
    e -----5--5-----5--5--5--5^6--5----------5--5----------------------------------------
    B ------------------------------------------------8---8--8--8/10--8---6--5--5--6--6--
    G --7-------------------------------7--6---------------------------------------------
    D -----------------------------------------------------------------------------------
    A -----------------------------------------------------------------------------------
    E -----------------------------------------------------------------------------------
    
    
        A#                  A7    
    e -------------------------
    B --6--6--6--8^6--5-----5--
    G -------------------7-----
    D -------------------------
    A -------------------------
    E -------------------------
    
        Dm                               A7    
    e -------5--5-------------5^6--5--------5--5--
    B ------------------5-6-8---------------------
    
  •        Dm                A7                        Dm                A7
    E ---5-5---5-5-5-6-5-5-----5-5-------5----------------------------------
    B ---------------------7-6----------------------------------------------
    G -7---------------------------8-8-8---8-8-5-5-h-6-6---6-6-6-8-6-5---5--
    D -----------------------------------------------------------------7----
    A ----------------------------------------------------------------------
    E ----------------------------------------------------------------------
    
    PARTE 2
           Dm                     A7                      Dm Gm                       A7
    E ---5-5----------6-5-5-----5-5-------6--------------------------5--------------------
    B ----------5-6-8---------------8-8-8---8-6-5-6-8-6-5-6----5-6-8---8-6-5---5-6-5---5--
    G -7------7-------------7-6------------------------------7---------------7-------7----
    D -------7----------------------------------------------------------------------------
    A ------------------------------------------------------------------------------------
    E ------------------------------------------------------------------------------------
    
       Dm                                 A7
    El amor es una gota de agua en un cristal
                            Dm
    
  • ZEUZ_16000@hotmail.com<<>
    
    
    E ---5-5.---5-5-5-6-5-------5-5.-----
    B --------------------6--------------
    G -7--------------------7-6----------
    D -----------------------------------
    A -----------------------------------
    E -----------------------------------
    
    E -----5----------------------------------------5--
    B -8-8---8-6-5-5-6-6.-----5-6-8-6-5---5-6-5---5----
    G ----------------------7-----------7-------7------
    D -------------------------------------------------
    A -------------------------------------------------
    E -------------------------------------------------
    
    Dm
    El amor
                           A7
    
  • Solo: guitarra electrica
    
    
    
    ||-----------------------------------------------------------------------
    ||--------------10-12-13--12-10-12-------------------10--10-12-10-10-8---
    |o--9---9-11-12-------------------------9-11-9-11-12---------------------
    |o-----------------------------------10----------------------------------
    ||-----------------------------------------------------------------------
    ||-----------------------------------------------------------------------
    
    -10s12-10-----------------------------
    ---------13-12-10p8--12s13-12-10------
    --------------------------------11-8--
    --------------------------------------
    --------------------------------------
    --------------------------------------
    
    
    ------12-12-----12---15-14-12-14-------15---17--15-14-17-15------------
    -12-13-------13---13----------------17---17----------------------------
    -----------------------------------------------------------------------
    -----------------------------------------------------------------------
    ---
  • +
    ¡Colabora con nosotros!
    Envíanos tu versión de esta canción
  • Tutorial
    Como tocar EL AMOR de Jose luis PERALES en guitarra
    4:09

El Amor Lyrics
El amor
es una gota de agua en el cristal
es un paseo largo sin hablar
es una fruta para dos.-
El amor
es un espacio donde no hay lugar
pra otra cosa que no sea amar
es algo entre tú y yo.-
El amor es llorar
cuando nos dice adios
el amor es soñar
oyendo una canción
el amor es besar
poniendo el corazón
es perdonarme tú y comprenderte yo.-
El amor es parar
el tiempo en un reloj
es buscar un lugar
donde escuchar tu voz
el amor es crear
un mundo entre los dos
es perdonarme tú y comprenderte yo.-
El amor
es una boca con sabor a miel
es una lluvia en el atardecer
es un paraguas para dos.-




[El Amor acordes][El Amor cifra]
© LaCuerda.net · legal notice · privacy · es · en · pt · contact us
DINAMICO