Guitar Chords » J »José Feliciano » Cuando pienso en tí (Tab)

Cuando pienso en tí
José Feliciano

Lyrics, Chords & Tabs for Guitar, Bass & Ukulele

  •        Em
    Cuando pienso en ti
                           Bm
    recuerdo que contigo conocí el amor
                          Bbm   Am
    me sangra las heridas que dejó
            D G
    que haré sin ti
    
          Em
    Cuando te perdí
                                  Bm
    buscaba en mi almohada siempre tu calor
                        Bbm    Am
    me ahogaba muy adentro este dolor
              D G             E
    Dónde estas mi amor
    
           CORO
           Am
    
  • e|--------------------------------------------------------------------------------
    B|-8-10-11-8------8-11-10-8--------------8-----------------------------------8----
    G|-----------8.-8-----------10-8-7.-8-10---10-8-7--------7-8-7.-7-7----8--7--7-7--
    D|------------------------------------------------10.-10------------10-10-8----8--
    A|--------------------------------------------------------------------------------
    E|--------------------------------------------------------------------------------
    
    e|-----------------------------------------------------------------------|
    B|-8-10-11-8------8-11-10-8---------------8-7-8-9-10.--------------------|
    G|-----------8.-8-----------10-8-7.-----7-------------7-8-7.-8-7-5-------|
    D|----------------------------------5-8----------------------------8-7-5-|
    A|-----------------------------------------------------------------------|
    E|-----------------------------------------------------------------------|
    
           F#m
    Cuando pienso en ti
        Bm7        E      A
    recuerdo que contigo conocí el amor
       D                   Bm
    me sangra las heridas que dejó
    
  • +
    ¡Colabora con nosotros!
    Envíanos tu versión de esta canción

Cuando pienso en tí Lyrics
Cuando pienso en ti
recuerdo que contigo conocí el amor
me sangra las heridas que dejó
que haré sin ti
Cuando te perdí
buscaba en mi almohada siempre tu calor
me ahogaba muy adentro este dolor
Dónde estas mi amor
Cuando pienso en ti
tu cuerpo en mi cuerpo vuelvo yo a sentir
cuando pienso en ti
recuerdo aquellas noches sin fin sin fin
cuando pienso en ti
me aferro a este dolor que siempre vive en mi
Cuando pienso en ti
recuerdo a ese hombre que yo fui que yo te di
Cuando pienso en ti
me envuelve la tristeza de un presente gris
me abrazo a la nostalgia porque asi soy feliz
estas en mi
Cuando pienso en ti
tu cuerpo en mi cuerpo vuelvo yo a sentir
cuando pienso en ti
recuerdo aquellas noches sin fin sin fin
Hola esta cancion se la dedico a amy y que asi la recuerdo!!
si tienen alguna dudua pueden contactarme a mi correo
davidiaz1492@hotmail.es




[Cuando pienso en tí acordes][Cuando pienso en tí cifra]
© LaCuerda.net · legal notice · privacy · es · en · pt · contact us
DINAMICO