Guitar Chords » J »Jose Augusto » Candilejas (Tab)

Candilejas
Jose Augusto

Lyrics, Chords & Tabs for Guitar, Bass & Ukulele

  •   A           F#m
    Tu llegaste a mi
               Bm
    cuando me voy
    E7
    eres luz de abril
               A
    yo tarde gris
    
    A
    Eres juventud
    F#m
    amor calor
        Bm     E7
    fulgor de sol
               Bm
    trajiste a mi
    
    tu juventud
      E7      A
    
  • A             F#m           Bm
    Tú llegaste a mi cuando me voy
    E                            A
    Eres luz de Abril, yo tarde gris
                   F#m                  E
    Eres juventud, amor, calor fulgor de sol
               Bm          E
    Trajiste a mí tu juventud
               A     E
    Cuando me voy
    A          F#m         Bm
    Entre candilejas te adoré
    E                      A
    Entre candilejas yo te amé
                     F#m                 D
    La felicidad que diste a mi vivir se fue
            Bm         E             A      F
    No volverá nunca jamás lo sé muy bien
    
    A#            Gm           Cm
    
  •        SI menor
    E------------------------------------------------------------
    A------------------------------------------------------------
    D------------------------------------------------------------
    G----------7------------7-----------7--------7---------------
    B------7-----------7------------7--------7--------7-------7--
    e--7----------9------------10---------9-------7---------9----
    
    
    
    La mayor
    E---------------------------------------------------------
    A---------------------------------------------------------
    D---------------------------------------------------------
    G-------6-------6---------6---------6---------------------
    B----5-------5--------5----------5-----------5-----5------
    e-5-------7--------9---------7-----------5-------7--------
    
    MI Mayor (4to traste)
    E--------------------------------------------------------------
    
  • +
    ¡Colabora con nosotros!
    Envíanos tu versión de esta canción

Candilejas Lyrics
Tú llegaste a mi cuando me voy
Eres luz de Abril, yo tarde gris
Eres juventud, amor, calor fulgor de sol
Trajiste a mí tu juventud
Cuando me voy
Entre candilejas te adoré
Entre candilejas yo te amé
La felicidad que diste a mi vivir se fue
No volverá nunca jamás lo sé muy bien
Tú llegaste a mi cuando me voy
Eres luz de Abril, yo tarde gris
Eres juventud, amor, calor fulgor de sol
Trajiste a mí tu juventud
Cuando me voy
Entre candilejas te adoré
Entre candilejas yo te amé
La felicidad que diste a mi vivir se fue
No volverá nunca jamás lo sé muy bien
,%%%%%%%%,
,%%/\%%%%/\%%
,%%%\/ '' \/%%%
%. %%%%/ 0 0 \%%%
`%%. %%%% _ |%%%
`%% `%%%%(__Y__)%%'
// ;%%%%`\-/%%%'
(( / `%%%%%%%'
\\ .' |
\\ / \ | |
\\/ ) | |
\ /_ | |__
(___________)))))))
________________________________________
Trascripción Gustavo León Diciembre 2002




[Candilejas acordes][Candilejas cifra]
© LaCuerda.net · legal notice · privacy · es · en · pt · contact us
DINAMICO