Guitar Chords » J »Joaquín Sabina » 19 dias y 500 noches (Tab)

19 dias y 500 noches
Joaquín Sabina

Lyrics, Chords & Tabs for Guitar, Bass & Ukulele

  • Sibdim: X12020; Mi7: 020100;
    
    Introducción: LAm MI SI7 MI SI7
    
                   MI                                SIbdim                FA#m
    A)Lo nuestro duró lo que duran dos peces de hielo en un güisqui on the rocks,
                 SI7          FA#m               SI7                 MI
    en vez de fingir, o, estrellarme una copa de celos, le dio por reír.
                             MI7                                         LA
    De pronto me vi, como un perro de nadie, ladrando, a las puertas del cielo.
         LAm                MI          DO#m        FA#m  SI                MI  SI7
    Me dejó un neceser con agravios, la miel en los labios y escarcha en el pelo.
    
    A)Tenían razón mis amantes en eso de que, antes, el malo era yo,
    con una excepción: esta vez, yo quería quererla querer y ella no.
    Así que se fue, me dejó el corazón en los huesos y yo de rodillas.
    Desde el taxi, y, haciendo un exceso, me tiró dos besos... uno por mejilla.
    
             LA
    B)Y regresé a la maldición del cajón sin su ropa,
    
  •          Am                     E             B7            E
    e-12-12-12p10-8--10-10/12-10-8h10p8-7--4-5-6-7-5--2-4-5-4-2-0-----
    B-----------------------------------------------------------------
              B7
    e---4-5-6-7--7-9-10-11---
    B------------------------
                 E
    Lo nuestro duró,
                               Edim                        F#m
    lo que duran dos peces de hielo, en un whisky on the rocks,
                 B7
    en vez de fingir,
            F#m                 B7                E
    o estrecharme una copa de celos, le dio por reír.
    
                 E
    De pronto me vi,
              E7                                         A
    como un perro de nadie ladrando, a las puertas del cielo.
         Am                   E
    
  • E6:022120     Edim7:xx2323
    
    Durante la canción, el acorde E no se toca solo sino con un
    adorno alternando entre E y E6 (tienen que escucharlo)
    
    Otro detalle es que se pueden usar los acordes F#m y C#m o
    sustituirlos por F#m7 y C#m7 para mantener las séptimas.
    
    Intro:(ver notas al final)
    
    e-12-12-12-10-8----10-12-10--8-8-7-----4-5-6-7--2---2-4-5-4-2-0-
    B---------------------------------------------------------------
    G--------------------------------------4-6-7-8--2---2-4-6-4-2-1-
    D---------------------------------------------------------------
    A---------------------------------------------------------------
    E---------------------------------------------------------------
    
    e--------------------
    B--------------------   Este Riff se usa en cada entrada
    G--------------------   a las estrofas tipo (1)
    
  • --------------13-13---------------13-13-12h13p12-
    -------------------------------------------------
    -------------------------------------------------
    -------------------------------------------------
    -------------------------------------------------
    
    
    ---------------------------------------------
    ---9---10--11---12--10----7--9--10--9--7--5--
    ---------------------------------------------
    -9--11----12---13---11----7--9--11--9--7--6--
    ---------------------------------------------
    ---------------------------------------------
    
    
    --------------------9---10---11-
    -9--10--11--12--12--8----9---10-
    --------------------9---10---11-
    -9--11--12--13--13--------------
    --------------------------------
    
  • ---12-12-12-10-8-8-8-10-12-12-10-8-8-7---
    -----------------------------------------
    -----------------------------------------
    -----------------------------------------
    -----------------------------------------
    -----------------------------------------
    
    ---4-5-6-7-2-4-5-4-2-0---
    --4-6-7-8--2-4-6-4-2-1---
    -------------------------
    -------------------------
    -------------------------
    -------------------------
    
    -------------------------
    -------------------------
    -------------------------
    -------------------------
    ---0-1-2---2-4-5-6-------
    -4-----------------------
    
  •                  Am                   MI
    I(e)  -|-12---12-12-10-8-8-|---10--10--10-8-8-7-|
    II(B) -|-------------------|--------------------|
    III(G)-|-------------------|--------------------|
    IV(D) -|-------------------|--------------------|
    V(A)  -|-------------------|--------------------|
    VI(E) -|-------------------|--------------------|
    
    2)
                     SI7                  MI
    I(e)  -|-------------------|------------------|
    II(B) -|---9-10-11-12--10--|------9-10-9------|
    III(G)-|-------------------|--11--------11-9--|
    IV(D) -|-------------------|------------------|
    V(A)  -|-------------------|------------------|
    VI(E) -|-------------------|------------------|
    
    3)
                     SI7
    I(e)  -|---------------7-9-10-11--|
    
  • Esta es la introducción de "19 días y 500 noches".Los acordes son sencillos. 
    
    -12-12-12-10----------10-10h12-10---------------------------------------------
    --------------13-13---------------13-13-12h13p12------------------------------
    ------------------------------------------------------------------------------
    ------------------------------------------------------------------------------
    ------------------------------------------------------------------------------
    ------------------------------------------------------------------------------
                                                                                  
    
    ------------------------------------------------------------------------------
    -9--10--11--12--10----7--9--10--9--7--5---------------------------------------
    ------------------------------------------------------------------------------
    -9--11--12--13--11----7--9--11--9--7--6---------------------------------------
    -----------------------------------
  •       _____________________________________
         /
    +---+---------------------------------------+---+
    |   | 1 | 2 | 3 | 4 | 5 | 6 | 7 | 8 | 9 | 10| C |
    +---+---------------------------------------+---+
          _____________________________________/
    
    Lo nuestro duro
    (5)(5) 5 (4) 4
    lo que duran dos peces de hielo, en un wisky on the rocks
    (5) 6 (6) 6 (5) 6 (5) 5 (5)(5)   (4) 5 (5) 5 (4) 4
    en vez de fingir
     5  5  5 (5) 6
    o estrellarme una copa de celos, le dio por reir
     6 (6)(7)(6) 6 (6) 6 (5) 6 (5)   (5)(5) 5 (4) 5
    
    
    De pronto me vi
     4 (5) 5 (4)(5)
    como un perro de nadie ladrando, a las puertas del cielo
     5 (4) 4  4 (4) 5 (4) 4  5  5     5 (5) 6 (5) 5  6 (5)
    me dejo un neceser con agravios, la miel en los labios
    (5) 6 (6)(5) 6 (6) 6  6 (5) 5    (5) 6 (5)(5) 5 (4)
    y escarcha en el pelo
    (4) 5 (5) 5  5 (4) 4
    
    
    Tenian razon
    (5)(5) 5 (4) 4
    mis amantes en eso de que antes, el malo era yo
    (5) 6 (6) 6 (5) 6 (5) 5 (5)(5)   (4) 5 (5) 5 (4) 4
    con una excepcion
     5  5  5 (5) 6
    esta vez yo queria quererl
  • +
    ¡Colabora con nosotros!
    Envíanos tu versión de esta canción
  • Tutorial
    HD
    19 días y 500 noches (Joaquín Sabina)
    13:10
  • Tutorial
    HD
    Como tocar 19 días y 500 noches - Joaquin Sabina (Acordes Guitarra Tutorial)
    13:06
  • Tutorial
    HD
    Como tocar 19 dias y 500 noches Joaquin Sabina en Guitarra (HD)
    Tutorial
    4:55

19 dias y 500 noches Lyrics
A)Lo nuestro duró lo que duran dos peces de hielo en un güisqui on the rocks,
en vez de fingir, o, estrellarme una copa de celos, le dio por reír.
De pronto me vi, como un perro de nadie, ladrando, a las puertas del cielo.
Me dejó un neceser con agravios, la miel en los labios y escarcha en el pelo.
A)Tenían razón mis amantes en eso de que, antes, el malo era yo,
con una excepción: esta vez, yo quería quererla querer y ella no.
Así que se fue, me dejó el corazón en los huesos y yo de rodillas.
Desde el taxi, y, haciendo un exceso, me tiró dos besos... uno por mejilla.
B)Y regresé a la maldición del cajón sin su ropa,
a la perdición de los bares de copas,
a las cenicientas de saldo y esquina,
y, por esas ventas del fino Laína,
pagando las cuentas de gente sin alma
que pierde la calma con la cocaína, volviéndome loco,
derrochando la bolsa y la vida la fui, poco a poco, dando por perdida.
B)Y eso que yo, para no agobiar con flores a María,
para no asediarla con mi antología
de sábanas frías y alcobas vacías,
para no comprarla con bisutería,
ni ser el fantoche que va, en romería,
con la cofradía del Santo Reproche, tanto la quería,
que tardé, en aprender a olvidarla, diecinueve días y quinientas noches.
A)Dijo hola y adiós, y, el portazo, sonó como un signo de interrogación,
sospecho que, así, se vengaba, a través del olvido, Cupido de mí.
No, no pido perdón, ¿para qué? si me va a perdonar porque ya no le importa...
siempre tuvo la frente muy alta, la lengua muy larga y la falda muy corta.
B)Me abandonó, como se abandonan los zapatos viejos,
destrozó el cristal de mis gafas de lejos,
sacó del espejo su vivo retrato,
y, fui, tan torero, por los callejones
del juego y el vino, que, ayer, el portero,
me echó del casino de Torrelodones. Qué pena tan grande,
negaría el Santo Sacramento, en el mismo momento que ella me lo mande.
B)Y eso que yo...
B)Y regresé... (Desvaneciéndose)
Madrid, 2 de Agosto de 1998
A la 'muchacha de ojos tristes',
por si le roba una sonrisa.




[19 dias y 500 noches acordes][19 dias y 500 noches cifra]
© LaCuerda.net · legal notice · privacy · es · en · pt · contact us
DINAMICO