Guitar Chords » J »Joan Sebastian » Se esta volviendo loco (Tab)

Se esta volviendo loco
Joan Sebastian

Lyrics, Chords & Tabs for Guitar, Bass & Ukulele

  •          D                 E7                        F#7
    E -5-5-5-5---5---5---5--------7-7-----7-7-----7-7-----------
    B -7-7-7-7-7-7-7-7-7-7-9-7-9--9-9-9-9-9-9-9-9-9-9-11-11-----
    G ---------7---7---7---9-7-9------9-9-----9-9-----11-11-----
    D ----------------------------------------------------------
    A ----------------------------------------------------------
    E ----------------------------------------------------------
                 E7        A
    E --------------------------------9-10-9--------------------
    B -7-7-7---7-9-9-9---9-5-5-5---5---------12-10-9-10---------
    G -7-7-7-7-7-9-9-9-9-9-6-6-6-6-6----------------------------
    D -------9---------9---------7------------------------------
    A ----------------------------------------------------------
    E ----------------------------------------------------------
    
                     Bm
    Se está volviendo loco el corazón
    E7                A              F#7
    el corazón que está dentro de mi
                       Bm
    
  • +
    ¡Colabora con nosotros!
    Envíanos tu versión de esta canción

Se esta volviendo loco Lyrics
Se está volviendo loco el corazón
el corazón que está dentro de mi
se está volviendo loco
pierde todo su ritmo cuando está junto a tí.
Se está volviendo loco el corazón
y ya no me obedece es por demás
se esta volviendo loco
se declara en peligro de morir si no estás.
Y sabe que lo nuestro no podrá ser jamás
se esta volviendo loco
yo le digo que no y el te ama más.
REQUINTO
(SE REPITEN LAS ESTROFAS 2 Y 3)
Se esta volviendo loco
vete, vete mejor para que muera en paz.




[Se esta volviendo loco acordes][Se esta volviendo loco cifra]
© LaCuerda.net · legal notice · privacy · es · en · pt · contact us
DINAMICO